>
 >
Gravity 2

Gravity 2 Guitar Tabs

Shawn Mcdonald - Gravity 2 chords, tabs, tablatures, lyrics

Guitar lessons | Add/correct | Request | Top 50 tabs Artists:  A B C D E F G H I J K L M N O P Q R S T U V W X Y Z 0-9

Gravity 2 Guitar Tabs – Shawn Mcdonald

CD, Sheet music, Poster

Do you like Gravity 2? Share with your friends now
ChordsTabsTabs v2Tabs v3Tabs v4Ukulele
-------------------------------------------------------------------------------
                             GRAVITY (2nd Guitar) - Shawn McDonald
-------------------------------------------------------------------------------

Tuning: Capo 1st

these are the fill-ins that the 2nd guitarist plays.
playing these tabs would sound THE BEST with 2 acoustic guitars :D

note: some of the riffs by the second guitarist are played with distortion
in the ACTUAL SONG.

Intro:
While the 1st Guitarist is playing this riff -
e|-3--S-2---S---S----S---|
B|----S-3---S-2-S----S---|
G|----S-----S---S-4--S---|
D|-2--S-----S-2-S----S---|
A|----S-2---S-0-S----S---|
E|----S-----S---S-3--S---|

the 2nd Guitarist plays this - 
e|----------------------------|
B|----------------------------|
G|-------------------7h9------|  i'd say it sounds 95% right -
D|-9h11-7h9--------------7h9--|  can't seem toget it sounding 100% right >:(
A|----------7-9-12------------|
E|----------------------------|  
*Play twice during Intro AND 4 times during Verse#1


Chorus:

"... fall away from you"
e|---------------------------------------------------------------------------|
B|---------------------------------------------------------------------------|
G|------------------------9-11-9-11---9-7-9-11-9-11--12-11-9-----------------|
D|---------------------------------------------------------------------------|
A|---------------------------------------------------------------------------|
E|---------------------------------------------------------------------------|
*This is played four times during the chorus (INCLUDING the one below)

"... pulling me to the ground"
e|---------------------------------------------------------------------------|
B|---------------------------------------------------------------------------|
G|-------------------------------9-11-9-11---9-7-9-11-9-11--12-11-9----------|
D|---------------------------------------------------------------------------|
A|---------------------------------------------------------------------------|
E|---------------------------------------------------------------------------|


Bridge:
*It sounds real NoICE if you do picking with the chords Bm, A, & G
throughout the bridge. While you do that - there are some small piano
parts. Here they are if you want to play it :]

"I want to fly..."                         
e|--------------------------------------2------|
B|----------------0-2-3-0----------0-2-3-------|
G|--------------2---------------2--------------|
D|---------------------------------------------|
A|---------------------------------------------|
E|---------------------------------------------|
*Repeat four times

Chorus RIGHT AFTER BRIDGE:
e|----0-5----0-5-----0-5----0-5---|
B|--3-----3------3-3-----3------3-|
G|--------------------------------|
D|--------------------------------|
A|--------------------------------|
E|--------------------------------|
*Play 3 times


| /  slide up
| \  slide down
| h  hammer-on
| p  pull-off
| ~  vibrato
| +  harmonic
| x  Mute note
===============================================================================





Comments


Popular Shawn Mcdonald tabs & chords
Closer Chords
Gravity Chords
Have You Ever Chords
Rise 4 Chords
Take My Hand Chords
Through It All Chords
Gravity 3 Tabs
Beautiful Ukulele
Clarity Ukulele
Here I Am Ukulele


Song lyrics



↑ Back to top | Tablatures and chords are parodies/interpretations of the original songs. You may use it for private study, scholarship, research or language learning purposes only
© 2014 AZChords.com Contact us | Privacy policy | DMCA | Add/correct tabs | Request tabs | Top 50 tabs