» » »

Shadows, Atlantis Tabs (ver.1)

Artists:  A B C D E F G H I J K L M N O P Q R S T U V W X Y Z # 

Atlantis Tabs (ver.1)

Shadows Tabs
Rating:
5/5 (6 votes)
Atlantis lessons Tabs too difficult? Try these video lessons and learn fast
                
Shadows Atlantis

The intro to this song is left hand muted but you can palm mute it if you prefer.

INTRO 0:01

|---------------------------15--12----------------13------------------|
|-----------13-13--13-13-13---------13--11-11--11------------11--10---|
|---14--15-------------------------------------------10-12~---------12| 
|---------------------------------------------------------------------|
|---------------------------------------------------------------------|
|---------------------------------------------------------------------|

|---------------------------15--12----------------13------------------|
|-----------13-13--13-13-13---------13--11-11--11------------11--10---|
|---14--15-------------------------------------------10-12~---------12| 
|---------------------------------------------------------------------|
|---------------------------------------------------------------------|
|---------------------------------------------------------------------|

Section one - 0:16

|-------------------------|
|---------------------1---|
|----------------0--2---0-|
|------0--2--3~-----------|
|---3~--------------------|
|-------------------------|

|------------------------------|
|---------------3--------------|
|---3h5p3~-3--5----2-----------|
|---------------------3------5-|
|------------------------3-----|
|------------------------------|

0:40

|-------------------------|
|------------------3------|
|--------------------4----|
|------2---------------5~-|
|---------2---4~----------|
|-------------------------|

|-------------------------|
|----5--3-----------------|
|----------5-5--3--2------|
|---------------------5--3|
|-------------------------|
|-------------------------|

|----------------------------------|
|--3-------------------------------|
|-----5--3-3-2-0----0~--0h2p0-----0|
|-----------------3------------3---|
|----------------------------------|
|----------------------------------|

0:50

|-------------------------|
|---------------------1---|
|----------------0--2---0-|
|------0--2--3~-----------|
|---3~--------------------|
|-------------------------|

|------------------------------|
|---------------3--------------|
|---3h5p3~-3--5----2-----------|
|---------------------3------5-|
|------------------------3-----|
|------------------------------|

|-------------------------|
|------------------3------|
|--------------------4----|
|------2---------------5~-|
|---------2---4~----------|
|-------------------------|

1:14

|-------------------------|
|----5--3-----------------|
|----------5-5--3--2------|
|---------------------5--3|
|-------------------------|
|-------------------------|

|-----------------------|
|--3--------------------|
|-----5--3-3-2-0----0~--|
|-----------------3-----|
|-----------------------|
|-----------------------|

Section two

1:23

|---------------------------15--12----------------13------------------|
|-----------13-13--13-13-13---------13--11-11--11------------11--10---|
|---14--15-------------------------------------------10-12~---------12| 
|---------------------------------------------------------------------|
|---------------------------------------------------------------------|
|---------------------------------------------------------------------|

|---------------------------15--12----------------13------------------|
|-----------13-13--13-13-13---------13--11-11--11------------11--10---|
|---14--15-------------------------------------------10-12~---------12| 
|---------------------------------------------------------------------|
|---------------------------------------------------------------------|
|---------------------------------------------------------------------|

1:39

|----------------------|------5---8-----|-------------------10-----|
|-----------------5--6~|---8---------8~-|--11h13p11--11--13--------|
|----------5~---7------|----------------|--------------------------|
|----------------------|----------------|--------------------------|
|----------------------|----------------|--------------------------|
|----------------------|----------------|--------------------------|


|--------------|-5--------10--7--------|
|-10-----------|---5----7~--------8~---|
|----10-----12~|-----------------------|
|-------10-----|-----------------------|
|--------------|-----------------------|
|--------------|-----------------------|



2:03

|---------------------------------------|
|---13--13--12---------------11--10-----|
|---------------14--12--10~---------12~-|
|---------------------------------------|
|---------------------------------------|
|---------------------------------------|

|---------------------------15--12----------------13------------------|
|-----------13-13--13-13-13---------13--11-11--11------------11--10---|
|---14--15-------------------------------------------10-12~---------12| 
|---------------------------------------------------------------------|
|---------------------------------------------------------------------|
|---------------------------------------------------------------------|

|---------------------------15--12----------------13------|
|-----------13-13--13-13-13---------13--11-11--11---------|
|---14--15-------------------------------------------10-12| 
|---------------------------------------------------------|
|---------------------------------------------------------|
|---------------------------------------------------------|


outro 2:25 - this part can catch you off gaurd, it took a while to tab
this part but i think this is right. if it does not sound right at first listen
to the original to try and get the idea of how its played.


|--------------------|
|------------4-6-8---|
|-------3------------|
|---5----------------|
|--------------------|
|--------------------|

the best way to play this is put your first finger on
the fifth fret of the G and tap and quickly pluck and remove your 2nd finger

|-------------|
|-6--6--------|
|------5-5----|
|-------------|
|-------------|
|-------------| x 2


|--------------3h5p3-|
|----------4-6-------|
|-------3------------|
|---5----------------|
|--------------------|
|--------------------|

now we played the same as above but in chords like this
|--6--6---8--8---|
|--8--8--10--10--|
|----------------|
|----------------|
|----------------|
|----------------|
|----------------|

hope you have as much fun playing as i have had tabbing this wonderful song.

almost finished tabbing out Geronimo by the shadows as well.
            
Submit corrections

comments powered by Disqus
↑ Back to top | Shadows Tabs for Atlantis. Lyrics for acoustic guitar and electric guitar. Tablatures and chords are parodies/interpretations of the original songs. You may use it for private study, scholarship, research or language learning purposes only