» » »

Shadows, Wonderful Land Tabs (ver.1)

Artists:  A B C D E F G H I J K L M N O P Q R S T U V W X Y Z # 

Wonderful Land Tabs (ver.1)

Shadows Tabs
 Rating:
4/5 (4 votes)
Wonderful Land lessons Tabs too difficult? Try these video lessons and learn fast
1
                PROPS GO TO: Max Guitarplayer

* The Shadows : Wonderful land (Lordan) 
------------------------------
 
    G (3)  F           G (3) F   G (3)  F           G (3) F 
E |-15----13-12-------|--------|-15----13-12-------|--------||
B |-------------15-13-|-15-----|-------------15-13-|-15-----||
G |-------------------|--------|-------------------|--------||
D |-------------------|--------|-------------------|--------||
A |-------------------|--------|-------------------|--------||
E |-------------------|--------|-------------------|--------||

    G (3)   D         F Dm    C     Am  C Am    F     Dm    Bb (6)      G(3)  
E |-------|---------|-------|---------|-------|-----------|-----------|-----|
B |-------|---------|-------|---------|-----5-|-6-6-5-----|-----------|-----|
G |-------|---------|-------|-5-5-----|-5-7---|-------7-5-|-7-(7)-7-7-|--7--|
D |-5---5-|-7-7-4---|-7---7-|-----5---|-------|-----------|-----------|-----|
A |---5---|-------5-|---8---|-------7-|-------|-----------|-----------|-----|
E |-------|---------|-------|---------|-------|-----------|-----------|-----|
                                              
    C (8)  Em(7)  C (8)   F    Dm(2)  C    G(3)  Dm (2)   Fm(4) 
E |-------|-----|-------|-5---|-5---|-----|-----|-------|------|
B |-5-----|-----|-5-----|-----|-----|--8--|-----|-6-5-6-|------|
G |---5---|-----|---5---|-----|-----|-----|-7---|-------|-5----|
D |-----7-|-5---|-----5-|-----|-----|-----|-----|-------|---6--|
A |-------|-----|-------|-----|-----|-----|-----|-------|------|
E |-------|-----|-------|-----|-----|-----|-----|-------|------|

    Em (3 fr)
E |-------------|-------------|-------------||
B |-------------|-------------|-------------||
G |-------------|-------------|-------------||
D |-5-(5)---5-9-|-5-(5)---5-9-|-5-(5)---5-9-||
A |-------7-----|-------7-----|-------7-----||
E |-------------|-------------|-------------||

    G (3)   D            F Dm    C       Am   C Am    F     Dm    Bb (6)    G(3)
E |------|------------|-------|------------|-------|-----------|-----------|---|
B |------|------------|-------|------------|-----5-|-6-6-5-----|-----------|---|
G |------|------------|-------|-5-55-5-----|-5-7---|-------7-5-|-7-(7)-7-7-|-7-|
D |5---5-|-7-77-7-4---|-7---7-|--------5---|-------|-----------|-----------|---|
A |--5---|----------5-|---8---|----------7-|-------|-----------|-----------|---|
E |------|------------|-------|------------|-------|-----------|-----------|---|

   (muted)---------------------------------------------------------------------|
  C(8) Em(7) F      G(3)   C(8) Em(7) F      G(3) C(8) 
E |-8-7---|----8----------|----8-7---|----8------|-12-10-7-|
B |-----8-|-10---10-8-----|--------8-|-10---10-8-|---------|
G |-------|-----------9-7-|----------|-----------|---------|
D |-------|---------------|-10-------|-----------|---------|
A |-------|---------------|----------|-----------|---------|
E |-------|---------------|----------|-----------|---------|
        
   ----------------------|                             
    F      G (3)           Em (3)                              
E |-8-10-8-7-------------|---------|-------------|-------------||        
B |----------10-(10)-----|-8-------|-------------|-------------||        
G |--------------------9-|---------|-------------|-------------||        
D |-----------------/9---|-----5-9-|-5-(5)---5-9-|-5-(5)---5-9-||        
A |----------------------|---7-----|-------7-----|-----7-------||        
E |----------------------|---------|-------------|-------------||        

   G (3)   D            F Dm    C       Am   C Am    F     Dm    Bb (6)    G(3)
E |------|------------|-------|------------|-------|-----------|-----------|---|
B |------|------------|-------|------------|-----5-|-6-6-5-----|-----------|---|
G |------|------------|-------|-5-55-5-----|-5-7---|-------7-5-|-7-(7)-7-7-|-7-|
D |5---5-|-7-77-7-4---|-7---7-|--------5---|-------|-----------|-----------|---|
A |--5---|----------5-|---8---|----------7-|-------|-----------|-----------|---|
E |------|------------|-------|------------|-------|-----------|-----------|---|

   (muted)---------------------------------------------------------------------|
  C(8) Em(7) F      G(3)   C(8) Em(7) F      G(3) C(8) 
E |-8-7---|----8----------|----8-7---|----8------|-12-10-7-|
B |-----8-|-10---10-8-----|--------8-|-10---10-8-|---------|
G |-------|-----------9-7-|----------|-----------|---------|
D |-------|---------------|-10-------|-----------|---------|
A |-------|---------------|----------|-----------|---------|
E |-------|---------------|----------|-----------|---------|

   ----------------------|                             
    F      G (3)           Em (7)                              
E |-8-10-8-7-------------|-----------7-|---------------7-|---||       
B |----------10-(10)-----|-8-(8)-5-8---|-8-7-8-(8)-5-8---|-8-|| 
G |--------------------9-|-------------|-----------------|---||        
D |-----------------/9---|-------------|-----------------|---||
A |----------------------|-------------|-----------------|---||
E |----------------------|-------------|-----------------|---||

    G (3)  F           G (3) F   G (3)  F           G (3) F 
E |-15----13-12-------|--------|-15----13-12-------|--------||
B |-------------15-13-|-15-----|-------------15-13-|-15-----||
G |-------------------|--------|-------------------|--------||
D |-------------------|--------|-------------------|--------||
A |-------------------|--------|-------------------|--------||
E |-------------------|--------|-------------------|--------||




Chords :

Dm(2) Fm(4) Em(3) C(8) Em (7)
E |--1-----4-----3-----8----7----|
B |--3-----6-----5-----8----8----|
G |--2-----5-----4-----9----9----|
D |--3-----6-----5----10----9----|
A |--x-----x-----x----10----x----|
E |--x-----4-----3-----x----x----|


*******************************************************************************

                                           Keep rockin !


*******************************************************************************
            
Submit corrections

comments powered by Disqus
↑ Back to top | Shadows Tabs for Wonderful Land. Lyrics for acoustic guitar and electric guitar. 1 Tablatures and chords are parodies/interpretations of the original songs. You may use it for private study, scholarship, research or language learning purposes only