>
 >
Geronimo

Geronimo Guitar Tabs

Shadows - Geronimo chords, tabs, tablatures, lyrics

Guitar lessons | Add/correct | Request | Top 50 tabs Artists:  A B C D E F G H I J K L M N O P Q R S T U V W X Y Z 0-9

Geronimo Guitar Tabs – Shadows

CD, Sheet music, Poster

Do you like Geronimo? Share with your friends now
ChordsTabsUkulele
PROPS GO TO: Max Guitarplayer

* The Shadows : Geronimo (Marvin)
------------------------

     Am         G 2         Am 
E ||----------|----------|------|--------||
B ||--13--17--|--15--12--|--13--|--(13)--||
G ||--14--17--|--16--12--|--14--|--(14)--||   Guitar 1  
D ||----------|----------|------|--------||
A ||----------|----------|------|--------||
E ||----------|----------|------|--------||
  |
E ||----------|----------|------|--------||
B ||----------|----------|------|--------||
G ||----------|----------|------|--------||   Guitar 2
D ||----------|----------|------|--------||
A ||--0---3---|--2-------|--0---|--(0)---||
E ||----------|------3---|------|--------||

    Am                    E7                    C 2                   E7
E |----------|----------|----------|----------|----------|----------|-----|----|
B |----------|----------|----------|----------|----------|----------|-----|-0--|
G |----------|----------|----------|----------|----------|----------|-1---|----|
D |----2-1-2-|-3-2------|----2-1-2-|-3-2------|----2-1-2-|-3-2--3-2-|-----|----|
A |-0--------|------5-3-|-2--------|------3-2-|-3--------|----------|-----|----|
E |----------|----------|----------|----------|----------|----------|-----|----|
                                                      
    F          C       F       Am      F       C      G        Am  (1)  (2)   
E |----------|-------|-------|-------|-------|-------|-------|----|---||------||
B |-1--1-0---|-------|-------|-------|-------|-------|-------|----|---||------||
G |-2------2-|-0-----|-2-0---|-------|-------|-------|-------|----|---||------||
D |-3--------|---2---|-----3-|-2-----|-3-2-0-|-2-----|-------|----|---||------||
A |-3--------|-----3-|-------|---3-0-|-------|---3/5-|-5-----|----|---||-8-8--||
E |----------|-------|-------|-------|-------|-------|---3/5-|-5--|---||------||

    F                              C     C 2             G 2               C 2
E |--------------|---------------|-----|---------------|-----|-----------|-----|
B |------------6-|-(6)-----------|-----|---------------|-----|-----------|-----|
G |----------5-5-|-(5)-7-5-7-5---|-----|---------------|-----|-----------|-----|
D |-7--7-7-7-7---|-------------7-|--5--|-5-7-5-7-5-7-5-|-5---|-7-5-7-5---|-----|
A |-8--8-8-8-----|---------------|-----|---------------|---5-|---------5-|--7--|
E |--------------|---------------|-----|---------------|-----|-----------|-----|

    C7         F                              C              G 2
E |----------|--------------|---------------|-----|--------|----------------|
B |----------|------------6-|-(6)-----------|-----|--------|----------------|
G |----------|----------5-5-|-(5)-7-5-7-5---|-----|--------|----------4-7-4-|
D |----------|-7--7-7-7-7---|-------------7-|-5---|-2--5-5-|-5--5-5-5-------|
A |-(7)--8-8-|-8--8-8-8-----|---------------|---3-|--------|----------------|
E |----------|--------------|---------------|-----|--------|----------------|
                                      
    F                Am               
E |----------------|-----|-----||     
B |----------------|-1-~-|-(1)-|| 
G |--------2-5-2-0-|-2-~-|-(2)-|| 
D |-3--3-3---------|-2-~-|-(2)-|| 
A |----------------|-----|-----||   
E |----------------|-----|-----||   

Am                    E7                    C 2                   E7
E |----------|----------|----------|----------|----------|----------|-----|----|
B |----------|----------|----------|----------|----------|----------|-----|-0--|
G |----------|----------|----------|----------|----------|----------|-1---|----|
D |----2-1-2-|-3-2------|----2-1-2-|-3-2------|----2-1-2-|-3-2--3-2-|-----|----|
A |-0--------|------5-3-|-2--------|------3-2-|-3--------|----------|-----|----|
E |----------|----------|----------|----------|----------|----------|-----|----|
                                                      
    F          C       F       Am      F       C      G       Am
E |----------|-------|-------|-------|-------|-------|-------|-------|---||   
B |-1--1-0---|-------|-------|-------|-------|-------|-------|-------|---||   
G |-2------2-|-0-----|-2-0---|-------|-------|-------|-------|-------|---||   
D |-3--------|---2---|-----3-|-2-----|-3-2-0-|-2-----|-------|-------|---||   
A |-3--------|-----3-|-------|---3-0-|-------|---3/5-|-5-----|-0-----|---||   
E |----------|-------|-------|-------|-------|-------|---3/5-|---3/5-|-5-|| 
  
     Am         G 2        Am     A       Am      A     Am      A     
E ||---------|----------|------|------|---8--|---9--|---8--|---9--(9)--||
B ||-13--17--|--15--12--|--13--|------|--10--|--10--|--10--|--10-(10)--||
G ||-14--17--|--16--12--|--14--|------|---9--|---9--|---9--|---9--(9)--|| Guit 1
D ||---------|----------|------|------|--10--|------|--10--|-----------||
A ||---------|----------|------|------|------|------|------|-----------||             
E ||---------|----------|------|------|------|------|------|-----------||
  |
E ||----------|----------|------|------|
B ||----------|----------|------|------|
G ||----------|----------|------|------|  Guitar 2
D ||----------|----------|------|------|
A ||--0----3--|--2-------|---0--|-(0)--|
E ||----------|------3---|------|------|




Chords :

    Am    G 2    E7    C 2    F    C    G    C7    A   
E |--0-----3-----0------3-----1----0----3-----0----0--|
B |--1-----3-----3------1-----1----1----0-----1----2--|
G |--2-----4-----1------0-----2----0----0-----3----2--|
D |--2-----5-----2------2-----3----2----0-----2----2--|
A |--0-----5-----2------3-----3----3----2-----3----0--|
E |--------3-----0----------------------3-------------|


*******************************************************************************

                                           Keep rockin !


*******************************************************************************





Comments


Popular Shadows tabs & chords
Atlantis Bass Tabs
Its A Mans World Chords
Savage Chords
Apache 5 Tabs
Cricket Bat Boogie Tabs
Peace Pipe Tabs
Spring Is Nearly Here Tabs
Starts Fell On Stockton Tabs
Frightened City Ukulele
Rumble Ukulele


Song lyrics



↑ Back to top | Tablatures and chords are parodies/interpretations of the original songs. You may use it for private study, scholarship, research or language learning purposes only
© 2014 AZChords.com Contact us | Privacy policy | DMCA | Add/correct tabs | Request tabs | Top 50 tabs