» » »

Shadows, Sleepwalk Bass tabs (ver.1)

Artists:  A B C D E F G H I J K L M N O P Q R S T U V W X Y Z # 

Sleepwalk Bass tabs (ver.1)

Shadows Tabs
 Rating:
4/5 (4 votes)
Sleepwalk lessons Tabs too difficult? Try these video lessons and learn fast
                shadows/sleepwalk.btab

Basstab by Jan Bjorklund, Finland; 
You are welcome to request for basstabs!
Bienvenidos a pedirme transcripciones para el bajo!


TablEdited by Jan Bjorklund for nordin
Tuning : E A D G 	Time Signature: 6/8

 tempo 92    |            |           |            |           |            
|------------------------|------------2---0-------|------------------------|
|------------------------|--------------------2---|3-----------3-----------|
|3-----------------------|0-----------------------|------------------------|
|------------------------|------------------------|------------------------|

 |           |            |           |            |           |            
|0---2---0---------------|------------------------|------------2---0-------|
|------------3---2---0---|------------------------|--------------------2---|
|------------------------|3-----------3-----------|0-----------------------|
|------------------------|------------------------|------------------------|

 |           |            |           |            |           |            
|------------------------|0-----------2---0-------|------------------------|
|3-----------3-----------|--------------------2---|------------------------|
|------------------------|------------------------|3-----------3-----------|
|------------------------|------------------------|------------------------|

 |           |            |           |            |           |            
|------------2---0-------|------------------------|0-----------2---0-------|
|--------------------2---|3-----------3-----------|--------------------2---|
|0-----------------------|------------------------|------------------------|
|------------------------|------------------------|------------------------|

 |           |            |           |            |           |            
|------------------------|------------------------|------------------------|
|------------------------|------------------------|3-----------3-----------|
|3---3---3---3-----------|0-----------0-----------|------------------------|
|------------------------|------------------------|------------------------|

 |           |            |           |            |           |            
|0-----------2---0-------|------------------------|------------2---0-------|
|--------------------2---|------------------------|--------------------2---|
|------------------------|3---3---3---3-----------|0-----------------------|
|------------------------|------------------------|------------------------|

 |           |            |           |            |           |            
|------------------------|0---2---0---------------|------------------------|
|3-----------3-----------|------------3---2---0---|------------------------|
|------------------------|------------------------|3---3---3---3-----------|
|------------------------|------------------------|------------------------|

 |           |            |           |            |           |            
|------------2---0-------|------------------------|0-----------2---0-------|
|--------------------2---|3-----------3-----------|--------------------2---|
|0-----------------------|------------------------|------------------------|
|------------------------|------------------------|------------------------|

 |           |            |           |            |           |            
|------------------------|------------2---0-------|------------------------|
|------------------------|--------------------2---|3-----------3-----------|
|3-----------3-----------|0-----------------------|------------------------|
|------------------------|------------------------|------------------------|

 |           |            |           |            |           |            
|0-----------2---0-------|------------------------|------------2---0-------|
|--------------------2---|------------------------|--------------------2---|
|------------------------|3---3---3---3-----------|0-----------------------|
|------------------------|------------------------|------------------------|

 |           |            |           |            |           |            
|------------------------|0-----------2---0-------|------------------------|
|3-----------3-----------|--------------------2---|----------------0---2---|
|------------------------|------------------------|3-----------3-----------|
|------------------------|------------------------|------------------------|

 |           |            |           |            |           |            
|------------------------|5-------5---3-------3---|2-----------0-----------|
|3-----------3---2---0---|------------------------|--------------------4---|
|------------------------|------------------------|------------------------|
|------------------------|------------------------|------------------------|

 |           |            |           |            |           |            
|------------------------|2-----------------------|------------1-----------|
|3-----------3-----------|------------3-------0---|3-----------------------|
|------------------------|------------------------|------------------------|
|------------------------|------------------------|------------------------|

 |           |            |           |            |           |            
|------------1---0-------|------------------------|------------------------|
|3-------------------2---|----------------0---2---|3-----------3---2---0---|
|------------------------|3-----------3-----------|------------------------|
|------------------------|------------------------|------------------------|

 |           |            |           |            |           |            
|5-------5---3-----------|2-----------0-----------|------------------------|
|------------------------|--------------------4---|3---3---3---3---3---3---|
|------------------------|------------------------|------------------------|
|------------------------|------------------------|------------------------|

 |           |            |           |            |           |            
|2-----------------------|------------1-----------|------------1-------1---|
|------------3-------0---|3---3---3---------------|3---3---3-------3-------|
|------------------------|------------------------|------------------------|
|------------------------|------------------------|------------------------|

 |           |            |           |            |           |            
|0-----------0---1---2---|3---3---3---3---2---1---|0-------2---0-----------|
|------------------------|------------------------|----------------2---0---|
|------------------------|------------------------|------------------------|
|------------------------|------------------------|------------------------|

 |           |            |           |            |           |            
|--------------------2---|------------------------|------------2---0-------|
|------------0---2-------|------------------------|--------------------2---|
|2-------2---------------|3---3---3---3-----------|0-----------------------|
|----3-------------------|------------------------|------------------------|

 |           |            |           |            |           |            
|------------------------|0-------0---2---0-------|------------------------|
|3-----------3-----------|--------------------2---|------------------------|
|------------------------|------------------------|3---3---3---3-----------|
|------------------------|------------------------|------------------------|

 |           |            |           |            |           |            
|------------2---0-------|------------------------|0-----------2---0-------|
|--------------------2---|3-----------3-----------|--------------------2---|
|0-----------------------|------------------------|------------------------|
|------------------------|------------------------|------------------------|

 |           |            |           |            |           |            
|------------------------|------------------------|------------------------|
|------------------------|------------------------|3-----------3-----------|
|3---3---3---3-------3---|0---0---0---0-----------|------------------------|
|------------------------|------------------------|------------------------|

 |           |            |           |            |           |            
|0-----------2---0-------|------------------------|------------2---0-------|
|--------------------2---|------------------------|--------------------2---|
|------------------------|3-----------3-----------|0-----------------------|
|------------------------|------------------------|------------------------|

 |           |            |           |            |           |            
|------------------------|0---2---0---------------|------------------------|
|3-----------3-----------|------------3---2---0---|------------------------|
|------------------------|------------------------|3-----------3-----------|
|------------------------|------------------------|------------------------|

 |           |            |           |            |           |            
|------------2---0-------|------------------------|0-----------2---0-------|
|--------------------2---|3-----------3-----------|--------------------2---|
|0-----------------------|------------------------|------------------------|
|------------------------|------------------------|------------------------|

 |           |            |           |            |           |            
|------------------------|------------2---0-------|------------------------|
|------------------------|--------------------2---|3-----------3-----------|
|3-----------3-----------|0-----------------------|------------------------|
|------------------------|------------------------|------------------------|

 |           |            |           |            |           |            
|0-----------2---0-------|------------------------|------------------------|
|--------------------2---|------------------------|------------------------|
|------------------------|3-----------3-----------|0-----------0-----------|
|------------------------|------------------------|------------------------|

 |           |            |           |            |           |            
|------------------------|------------------------|------------------------|
|3-----------------------|------------------------|3-------3---3---3-------|
|----------------0---2---|3-----------3-----------|------------------------|
|------------3-----------|------------------------|------------------------|

 |           |            |           |            
|5---3---2---0-----------|------------------------|
|----------------3---2---|------------------------|
|------------------------|3-----------------------|
|------------------------|------------------------|
            
Submit corrections

comments powered by Disqus
↑ Back to top | Shadows Bass for Sleepwalk. Lyrics for acoustic guitar and electric guitar. Tablatures and chords are parodies/interpretations of the original songs. You may use it for private study, scholarship, research or language learning purposes only