>
 >
God Saves The Queen

God Saves The Queen Guitar Tabs

Sex Pistols - God Saves The Queen chords, tabs, tablatures, lyrics

Guitar lessons | Add/correct | Request | Top 50 tabs Artists:  A B C D E F G H I J K L M N O P Q R S T U V W X Y Z 0-9

God Saves The Queen Guitar Tabs – Sex Pistols

CD, Sheet music, Poster

Do you like God Saves The Queen? Share with your friends now
Tabs

Not much to this song just a good old punk song to piss people off

 Intro                                                                        
------------------------|-----------------------------------------------------
------------------------|-----------------------------------------------------
-13/14-14-14---14-14-14-|-13/14-14-14-13/14-14-14-13/14-14-14----2-2-2--------
-13/14-14-14---14-14-14-|-13/14-14-14-13/14-14-14-13/14-14-14----2-2-2--------
-11/12-12-12---12-12-12-|-11/12-12-12-11/12-12-12-11/12-12-12----0-3-0--------
------------------------|-----------------------------------------------------

 Main Riff                                                                    
---------------------------|-------------------------|------------------------
---------------------------|-------------------------|------------------------
-2-----2--2---------2--7-7-|-7--7--7--7----6----2--2-|------------------------
-2-----2--2---------2--7-7-|-7--7--7--7----7----2--2-|------------------------
-0-----0--0---------0--5-5-|-5--5--5--4----5----0--0-|------------------------
---------------------------|-------------------------|------------------------
                                                                              

-6/7--7--7-----7--7--7--6/7--7--7-----7--7--7---------------------------------
-6/7--7--7-----7--7--7--6/7--7--7-----7--5--7---------------------------------
-4/5--5--5-----5--5--5--4/5--5--5-----5-----5---------------------------------

 Bridge                                                                       
---------------------------------------------|--------------------------------
---------------------------------------------|--------------------------------
-9----9-----------------8/9--9--9--8/9--9--9-|-9--9---9----9----9-------------
-9----9--9-----9--9--9--8/9--9--9--8/9--9--9-|-9--9---9----9----9-------------
-7----7--9-----9--9--9--6/7--7--7--6/7--7--7-|-7--7---7----7----7-------------
---------7-----7--7--7-----------------------|--------------------------------

 Chorus                                                                       
-2---2---2---2--2--2---2---2---7--7--7----7--6--7--7--7--2--2-----------------
-2---2---2---2--2--4---2---2---7--7--7----7--7--7--7--7--2--2-----------------
-0---0---0---0--0--0---0---0---5--5--5----5--4--5--5--5--0--0-----------------
                                                                              

-9----9--9--9--9--9--9--2--2--2----2--2--2--2-2--2--2-------------------------
-9----9--9--9--9--9--9--2--2--2----2--2--2--2-2--2--2--------------5-b--------
-7----7--7--7--7--7--7--0--0--0----0--0--0--0-0--0--0-------------------------

Solo
-2--2--2-----2--2--2-----------------------------2----2--2--------------------
-2--2--2-----2--2--2--0--------------------------2----2--2--0--2--0-----------
----------4b----------0--4--4---6br--4--6--4--0----4b-------0--2--0--4--------
-------------------------4--4---6br--4--6--4--0-------------------------------
                                                                              

-------------------------2--2--2----------------------------------------------
-5--5--5--5--4--0--2-----2--2--2--0-------------------5--4--0--2--------------
-4--4--4--4--4--0-----4b----------0--4--4--4--4----4--4--4--0-----------------
-4--4--4--4--4--0--------------------4--4--4--4----4--4--4--0-----------------
                                                                              

-------h------12-12-12-12-12-12-12-------12-------12-------12-----------------
----2-2-4-2-0-12-12-12-12-12-12-12-12----12-12----12-12----12-----------------
-4b-----------13-13-13-13-14-14-13-13-14----13-14----13-14--------------------
-------------------------------------h--------h--------h------14-----\---2----





Comments


Popular Sex Pistols tabs & chords
Problems Bass Tabs
Anarchy In The U.K 1 Chords
I Wanna Be Me Chords
Who Killed Bambi Chords
Belsen Was A Gas Intro Tabs
C’Mon Everybody Tabs
God Save The Queen 3 Tabs
No Feelings 1 Tabs
Streets Of London Tabs
Problems Ukulele


Song lyrics



↑ Back to top | Tablatures and chords are parodies/interpretations of the original songs. You may use it for private study, scholarship, research or language learning purposes only
© 2014 AZChords.com Contact us | Privacy policy | DMCA | Add/correct tabs | Request tabs | Top 50 tabs