» » »

God Save The Queen Bass tabs (ver.2)

Artists:  A B C D E F G H I J K L M N O P Q R S T U V W X Y Z # 

God Save The Queen Bass tabs (ver.2)

Sex Pistols
Rating:
5/5 (18 votes)

Hard to play? Try these video lessons and learn fast.
                Tuning Standard

Intro

G|------------------------------------------------------------------------------------------|
D|------------------------------------------------------------------------------------------|
A|--11-12-12-12-12-12-12-12-11-12-12-12-12-12-12-11-12-12-11-12-12-11-12-12-12-12-12-12-12--|
E|------------------------------------------------------------------------------------------|


Verse

G|-----------------------------------------------------------------|
D|-----------------------------------------------------------------| X2
A|----------555455---------555455---------555455-------------------|
E|--55555555------655555555------655555555------64555555545554555--|

Chorus

G|---------------------------------------------------------------------|
D|---------------------------------------------------------------------|
A|--677-----67776777677-----67776777677-----67776777677-----677777777--|
E|-----5-555-----------5-555-----------5-555-----------5-555-----------|

Post Chorus

G|-----------------------------------------------------------------|
D|-----------------------------------------------------------------|
A|----------555455---------555455---------7777777------------------|
E|--55555555------655555555------655555555-------5555555555555555--|

Verse x2 again

Chorus

Post Chorus

Solo

G|----------------------------------|
D|--4-4-4-4-4-4-4-4-----------------|
A|-----------------2-2-2-2-2-2-2-2--|  X3
E|----------------------------------|

G|---------------------------------------------------|
D|--4-4-4-4-4-4-4-4-2-2-2-2-2-2-2-2-2-2-2-2-2-2-2-2--|
A|---------------------------------------------------|
E|---------------------------------------------------|

Post Chorus 

Outro X3

G|-------------------------------------------------|
D|-------------------------------------------------|
A|--5-5-5-5-4-2-5-5-5-5-4-2-5-5-5-5-4-2-0----------|
E|---------------------------------------55555555--|

Outro Finale

G|-------------------------------------|
D|-------------------------------------|
A|--455555545555554555455545554555-5~--|
E|-------------------------------------|
            
Hard to play? Try these video lessons and learn fast. | Correct




comments powered by Disqus
↑ Back to top | Tablatures and chords are parodies/interpretations of the original songs. You may use it for private study, scholarship, research or language learning purposes only