» » »

Bodies Tabs (ver.1)

Artists:  A B C D E F G H I J K L M N O P Q R S T U V W X Y Z # 

Bodies Tabs (ver.1)

Sex Pistols
Rating:
4/5 (4 votes)

Hard to play? Try these video lessons and learn fast.
                intro 
|-------------------------| 
|-------------------------| 
|-------------------------| 
|-------------------------| 
|--------2----------------| 
|---2/3---3-2/3--0--------| 

verse 1 
|-----------------------------------------| 
|-----------------------------------------| 
|-----------------------------------------| 
|-----------------------------------------| 
|--5/999--5/999--5/9999999----------------| 
|--5/777--5/777--5/7777777----------------| 

verse 2 
|-----------------------------------------| 
|-----------------------------------------| 
|-----------------------------------------| 
|-----------------------------------------| 
|--3/444--3/444--3/4444444----------------| 
|--1/222--1/222--1/2222222----------------| 

|-----------------------------------------| 
|-----------------------------------------| 
|-----------------------------------------| 
|-----------------------------------------| 
|--7/999---7/999--7/9999999---------------| 
|--5/777---5/777--5/7777777---------------| 

chorus 1 
|--------------------------------------------------| 
|--------------------------------------------------| 
|--------------------------------------------------| 
|--55555555--77777777--5/777--5/777--5/7777777-----| 
|--33333333--77777777--3/555--3/555--3/5555555-----| 
|--33333333--55555555------------------------------| 

|--------------------------------------------------| 
|--------------------------------------------------| 
|--------------------------------------------------| 
|--55555555--77777777--5/777--5/777--777777777-----| 
|--33333333--77777777--3/555--3/555--777777777-----| 
|--33333333--55555555----------------555555555-----| 

chorus 2 
|--------------------------------------------------| 
|--------------------------------------------------| 
|--------------------------------------------------| 
|--55555555--77777777--5/777--5/777--5/7777777-----| 
|--33333333--77777777--3/555--3/555--3/5555555-----| 
|--33333333--55555555------------------------------| 

|--------------------------------------------------| 
|--------------------------------------------------| 
|--------------------------------------------------| 
|--55555555--77777777--777777777-------------------| 
|--33333333--77777777--555555555-------------------| 
|--33333333--55555555------------------------------| 

chorus 3 
|--------------------------------------------------| 
|--------------------------------------------------| 
|--------------------------------------------------| 
|--4/555555--6/777777--777777777-------------------| 
|--2/333333--4/777777--555555555-------------------| 
|--2/333333--4/555555------------------------------| 

inro 4x 
verse 1 4x 
verse 2 2x 
chorus 1 1x 
verse 1 4x 
verse 2 2x 
chorus 2 1x 
chorus 3 9x 
pause 
verse 1 4x 
verse 2 2x 
chorus 2 1x 
chorus 3 9x 
            
Hard to play? Try these video lessons and learn fast. | Correct




comments powered by Disqus
↑ Back to top | Tablatures and chords are parodies/interpretations of the original songs. You may use it for private study, scholarship, research or language learning purposes only