» » »

Sex Pistols, Bodies Bass tabs (ver.1)

Artists:  A B C D E F G H I J K L M N O P Q R S T U V W X Y Z # 

Bodies Bass tabs (ver.1)

Sex Pistols Tabs
 Rating:
3.4/5 (5 votes)
Bodies lessons Tabs too difficult? Try these video lessons and learn fast
                Legend:

/   - Slide Up
\   - Slide Down
( ) - Let Ring
h   - Hammer On
Intro

G|-----------------|-----------------|--------0--------|-------------------|
D|-----2--0-----2--|-----2--0-----2--|-----2--------2--|-----2--0-----2----|
A|-----------------|-----------------|-----------------|-------------------|
E|-2/3--0---2/3--0-|-2/3--0---2/3--0-|-2/3--0---2/3--0-|-2/3--0---2/3--(0)-|

Verse

G|--------------------------|--------------------------|
D|--------------------------|--------------------------|
A|-0h222-0h222-0h2222-/5-\2-|-0h222-0h222-0h2222-/5-\2-| X2
E|--------------------------|--------------------------|

G|------------------------|------------------------|
D|------------------------|------------------------|
A|------------------------|-0h222-0h222-0h222-2222-| X2
E|-1h222-1h222-1h222-2222-|------------------------|

Chorus


Verse

G|--------------------------|--------------------------|
D|--------------------------|--------------------------|
A|-0h222-0h222-0h2222-/5-\2-|-0h222-0h222-0h2222-/5-\2-| X2
E|--------------------------|--------------------------|

G|------------------------|------------------------|
D|------------------------|------------------------|
A|------------------------|-0h222-0h222-0h222-2222-| X2
E|-1h222-1h222-1h222-2222-|------------------------|

Chorus

G|-------------------------------------|-------------------------------|
D|-------------------------------------|-------------------------------|
A|-------------------4h555-4h555-4h555-|-------------------4h555-4h555-|
E|-33333333-55555555-------------------|-33333333-55555555-------------|

Bridge
           X7                 8th time
G|-------------------------|----------------------------|
D|-------------------------|----------------------------|
A|-4h555-4h555-------------|-4h555-4h555------------(5)-|
E|-------------3h555-3h555-|-------------3h555-3h555----|

Verse

G|--------------------------|--------------------------|
D|--------------------------|--------------------------|
A|-0h222-0h222-0h2222-/5-\2-|-0h222-0h222-0h2222-/5-\2-| X2
E|--------------------------|--------------------------|

G|------------------------|------------------------|
D|------------------------|------------------------|
A|------------------------|-0h222-0h222-0h222-2222-| X2
E|-1h222-1h222-1h222-2222-|------------------------|

Chorus

G|-------------------------------------|-------------------------------|
D|-------------------------------------|-------------------------------|
A|-------------------4h555-4h555-4h555-|-------------------4h555-4h555-|
E|-33333333-55555555-------------------|-33333333-55555555-------------|

Bridge
           X7                 8th time                   End 
G|-------------------------|---------------------------|-----|
D|-------------------------|---------------------------|-----|
A|-4h555-4h555-------------|-4h555-4h555------------(5)|--5--|
E|-------------3h555-3h555-|-------------3h555-3h555---|-----|

Hope it works out well, this is the way our band plays it.
            
Submit corrections

comments powered by Disqus
↑ Back to top | Sex Pistols Bass for Bodies. Lyrics for acoustic guitar and electric guitar. Tablatures and chords are parodies/interpretations of the original songs. You may use it for private study, scholarship, research or language learning purposes only