>
 >
Empty Glasses 1

Empty Glasses 1 Guitar Tabs

Scary Kids Scaring Kids - Empty Glasses 1 chords, tabs, tablatures, lyrics

Guitar lessons | Add/correct | Request | Top 50 tabs Artists:  A B C D E F G H I J K L M N O P Q R S T U V W X Y Z 0-9

Empty Glasses 1 Guitar Tabs – Scary Kids Scaring Kids

CD, Sheet music, Poster

Do you like Empty Glasses 1? Share with your friends now
TabsTabs v2Tabs v3
Guitar 1:
E|-------------------------------------|x2
B|-------------------------------------|
G|-----9-9-----------9-9-------7-7-----|
D|---------10-10---------10-10-----9-9-|
A|-0-0-----------0-0-------------------|
D|-------------------------------------|

E|------Am-----3----------0--------------|
B|-------1-----1----------1---------3----|x2
G|-------2-----2----------0---------4----|
D|-2-2-2-2--~~~~~~--2-2-2-2---------5----|
A|-0-0-0-0-~~~~~~~--3-3-3-3---5-5-5-5----|
D|----------------------------5-5-5-5----|
pm ... . .            . . .     . . .    

E|-------------------------------------------------------------------------|
B|-------------------------------------------------------------------------|
G|-----5--5-----7--7-----------------------5--5------7--7------------------|
D|-3-3-5--5-0-0-7--7--222222225555-----3-3-5--5--0-0-7--7-22222222---------|x2
A|-3-3-3--3-0-0-5--5--0000000033335555-3-3-3--3--0-0-5--5-0000000055555555-|
D|-3-3------0-0-------------------5555-3-3-------0-0--------------55555555-|

E|--------------------|
B|--------------------|
G|-----5--5-----7--7--|
D|-3-3-5--5-0-0-7--7--|
A|-3-3-3--3-0-0-5--5--|
D|-3-3------0-0-------|

E|-------------------------------------|
B|-------------------------------------|
G|-----9-9-----------9-9-------7-7-----|
D|---------10-10---------10-10-----9-9-|
A|-0-0-----------0-0-------------------|
D|-------------------------------------|


E|-----Am------3----------0--------------|
B|-------1-----1----------1---------3----|
G|-------2-----2----------0---------4----|
D|-2-2-2-2--~~~~~~--2-2-2-2---------5----|
A|-0-0-0-0-~~~~~~~--3-3-3-3---5-5-5-5----|
D|----------------------------5-5-5-5----|
pm ... . .            . . .     . . .    


E|-------------------------------------|
B|-------------------------------------|
G|-----9-9-----------9-9-------7-7-----|x5
D|---------10-10---------10-10-----9-9-|
A|-0-0-----------0-0-------------------|
D|-------------------------------------|

E|-------------------------------------------------------------------------|
B|-------------------------------------------------------------------------|
G|-----5--5-----7--7-----------------------5--5------7--7------------------|
D|-3-3-5--5-0-0-7--7--222222225555-----3-3-5--5--0-0-7--7-22222222---------|x2
A|-3-3-3--3-0-0-5--5--0000000033335555-3-3-3--3--0-0-5--5-0000000055555555-|
D|-3-3------0-0-------------------5555-3-3-------0-0--------------55555555-|

E|--------------------|
B|--------------------|
G|-----5--5-----7--7--|
D|-3-3-5--5-0-0-7--7--|
A|-3-3-3--3-0-0-5--5--|
D|-3-3------0-0-------|


E|--------------------------------------------------------------|
B|--------------------------------------------------------------|
G|-------------------------------9-9-----------9-9-------7-7----|
D|-2-2------2-2----------------------10-10---------10-10-----9-9|
A|-0-0------0-0--------------0-0-----------0-0------------------|
D|--------------------------------------------------------------|

E|---------------------------------------------------------------------------
B|---------------------------------------------------------------------------
G|-------------------------------9-9-------------------------------------9h10
D|-----10-10-9-9---------------------9-10-----10-10-9-9-----10---9h10h12h----
A|-0-0-----------0-0-10-10-12-12----------0-0-----------0-0----12------------
D|---------------------------------------------------------------------------


E|-------------------------------------
B|-------------------------------------
G|-----9-9-----------9-9-------7-7-----
D|---------10-10---------10-10-----9-9-continue down
A|-0-0-----------0-0-------------------
D|-------------------------------------

E|---------------------------------------------------------------------------
B|---------------------------------------------------------------------------
G|-------------------------------9-9-------------------------------------9h10
D|-----10-10-9-9---------------------9-10-----10-10-9-9-----10---9h10h12h----
A|-0-0-----------0-0-10-10-12-12----------0-0-----------0-0----12------------
D|---------------------------------------------------------------------------


E|--------------------------------------------------------|
B|--------------------------------------------------------|
G|-----9-9-----------9-9-------7-7----------9-9-------2-2-|
D|---------10-10---------10-10-----9-9----------10-10-2-2-|
A|-0-0-----------0-0--------------------0-0-----------0-0-|
D|--------------------------------------------------------|

E|-------------------------------------------------------------------------|
B|-------------------------------------------------------------------------|
G|-----5--5-----7--7-----------------------5--5------7--7------------------|
D|-3-3-5--5-0-0-7--7--222222225555-----3-3-5--5--0-0-7--7-22222222---------|x2
A|-3-3-3--3-0-0-5--5--0000000033335555-3-3-3--3--0-0-5--5-0000000055555555-|
D|-3-3------0-0-------------------5555-3-3-------0-0--------------55555555-|

E|--------------------|
B|--------------------|
G|-----5--5-----7--7--|
D|-3-3-5--5-0-0-7--7--|
A|-3-3-3--3-0-0-5--5--|
D|-3-3------0-0-------|


E|--------------------------------------------------------|
B|--------------------------------------------------------|
G|-----9-9-----------9-9-------7-7----------9-9-------2-2-|
D|---------10-10---------10-10-----9-9----------10-10-2-2-|
A|-0-0-----------0-0--------------------0-0-----------0-0-|
D|--------------------------------------------------------|

-----------------------------------------------------------------------------
*****************************************************************************
-----------------------------------------------------------------------------
--------------------Guitar 2 and 3 (lead and rhythm)-------------------------
*****************************************************************************           
             Lead
E|---------------------------------|
B|---------------------------------|
G|-----5-5---------5-5-----4-4-----|
D|---------7-7---------7-7-----5-5-|x2
A|-8-8---------8-8-----------------|
D|---------------------------------|

         rhythm guitar
E|------------------------------------------------------
B|------------------------------------------------------
G|-NOTHING=)--------------------------------------------
D|------------------------------------------------------
A|------------------------------------------------------
D|------------------------------------------------------
Guitar 2 and 3 RHYTHM and LEAD
E|-------0------0-----------0----------------|
B|-------1------1-----------1----------------|
G|-------2~~~~~~2-----------0----------------|x2
D|-2-2-2-2~~~~~~------2-2-2-2--------------5-|
A|-0-0-0-0~~~~~~------3-3-3-3--------5-5-5-5-|
D|-----------------------------------5-5-5-5-|
Pm . . .              . . .          . . .
i dont think the 3rd guitar plays
E|-------------------------------------------------------------------------|
B|-------------------------------------------------------------------------|
G|-----9--9-----10-10----------------------9--9-----10-10------------------|x2
D|-3-3------0-0-------222222225555-----3-3------0-0-------22222222---------|
A|-3-3-7--7-0-0-8--8--0000000033335555-3-3-7--7-0-0-8--8--0000000055555555-|
D|-3-3------0-0-------------------5555-3-3------0-0---------------55555555-|

E|--------------------|
B|--------------------|
G|-----9--9-----10-10-|
D|-3-3------0-0-------|
A|-3-3-7--7-0-0-8--8--|
D|-3-3------0-0-------|

**lead**
E|---------------------------------|
B|---------------------------------|
G|-----5-5---------5-5-----4-4-----|
D|---------7-7---------7-7-----5-5-|
A|-0-0---------0-0-----------------|
D|---------------------------------|

Rhythm
E|-----------------|
B|-----------------|
G|-2-2---------2-2-|
D|-2-2---------2-2-|
A|-0-0---------0-0-|
D|-----------------|

Guitar 2 and 3 RHYTHM and LEAD
E|-------0------0-----------0----------------|
B|-------1------1-----------1----------------|
G|-------2~~~~~~2-----------0----------------|
D|-2-2-2-2~~~~~~------2-2-2-2--------------5-|
A|-0-0-0-0~~~~~~------3-3-3-3--------5-5-5-5-|
D|-----------------------------------5-5-5-5-|
Pm . . .              . . .          . . . 

**lead**
E|---------------------------------|
B|---------------------------------|
G|-----5-5---------5-5-----4-4-----|
D|---------7-7---------7-7-----5-5-|
A|-0-0---------0-0-----------------|
D|---------------------------------|

**Rhythm**
E|-------0------0-----------0----------------|
B|-------1------1-----------1----------------|
G|-------2~~~~~~2-----------0----------------|
D|-2-2-2-2~~~~~~------2-2-2-2--------------5-|
A|-0-0-0-0~~~~~~------3-3-3-3--------5-5-5-5-|
D|-----------------------------------5-5-5-5-|
Pm . . .              . . .          . . . 

i dont think the 3rd guitar plays
E|-------------------------------------------------------------------------|
B|-------------------------------------------------------------------------|
G|-----9--9-----10-10----------------------9--9-----10-10------------------|x2
D|-3-3------0-0-------222222225555-----3-3------0-0-------22222222---------|
A|-3-3-7--7-0-0-8--8--0000000033335555-3-3-7--7-0-0-8--8--0000000055555555-|
D|-3-3------0-0-------------------5555-3-3------0-0---------------55555555-|

E|--------------------|
B|--------------------|
G|-----9--9-----10-10-|
D|-3-3------0-0-------|
A|-3-3-7--7-0-0-8--8--|
D|-3-3------0-0-------|


**Lead**
E|---------------------------------------------------------------------------
B|---------------------------------------------------------------------------
G|----9-9-7-7----------------12-12-7/-9-----9-9-7-7-------------------9h10h12
D|-----------------9-9-10-10----------------------------9-9-10-9h10h12-------
A|0-0---------0-0-----------------------0-0---------0-0----------------------
D|---------------------------------------------------------------------------

**rhythm**
E|---------------------------------------------------------------------------
B|---------------------------------------------------------------------------
G|---------------------------------------------------------------------------
D|---------------------------------------------------------------------------
A|3-3---------3-3-----------------------3-3---------3-3----------------------
D|3-3---------3-3-----------------------3-3---------3-3----------------------
PM. .         . .                       . .         . .        |   
                                                               |repeat x4
********************RHYTHM***********************              |though whole
E|-------------------------------------------------------------------bridge--
B|---------------------------------------------------------------------------
G|---------------------------------------------------------------------------
D|2-2---------2-2-----------------------2-2---------2-2----------------------
A|0-0---------0-0-----------------------0-0---------0-0----------------------
D|---------------------------------------------------------------------------
Pm. .         . .                       . .         . . 

**lead**
E|---------------------------------|
B|---------------------------------|
G|-----5-5---------5-5-----4-4-----|
D|---------7-7---------7-7-----5-5-|x2
A|-0-0---------0-0-----------------|
D|---------------------------------|

**Lead**
E|---------------------------------------------------------------------------
B|---------------------------------------------------------------------------
G|----9-9-7-7----------------12-12-7/-9-----9-9-7-7-------------------9h10h12
D|-----------------9-9-10-10----------------------------9-9-10-9h10h12-------
A|0-0---------0-0-----------------------0-0---------0-0----------------------
D|---------------------------------------------------------------------------

E|---------------------------------|
B|---------------------------------|
G|-----5-5---------5-5-----4-4-----|
D|---------7-7---------7-7-----5-5-|x2
A|-0-0---------0-0-----------------|
D|---------------------------------|

E|-------------------------------------------------------------------------|
B|-------------------------------------------------------------------------|
G|-----9--9-----10-10----------------------9--9-----10-10------------------|x2
D|-3-3------0-0-------222222225555-----3-3------0-0-------22222222---------|
A|-3-3-7--7-0-0-8--8--0000000033335555-3-3-7--7-0-0-8--8--0000000055555555-|
D|-3-3------0-0-------------------5555-3-3------0-0---------------55555555-|

E|--------------------|
B|--------------------|
G|-----9--9-----10-10-|
D|-3-3------0-0-------|
A|-3-3-7--7-0-0-8--8--|
D|-3-3------0-0-------|

E|--------------------------------------------------|
B|--------------------------------------------------|
G|-----5-5---------5-5-----4-4----------5-5-----2-2-|
D|---------7-7---------7-7-----5-5----------7-7-2-2-|
A|-0-0---------0-0------------------0-0---------0-0-|
D|--------------------------------------------------|

Rhythm
E|-----------------|
B|-----------------|
G|-2-2---------2-2-|
D|-2-2---------2-2-|
A|-0-0---------0-0-|
D|-----------------|





Comments


Popular Scary Kids Scaring Kids tabs & chords
Degenerates Bass Tabs
My Darkest Hour Bass Tabs
Goes Without Saying 1 Chords
Watch Me Bleed 2 Chords
Drowning Tabs
Snake Devil Tabs
Star Crossed Tabs
The Only Medicine 1 Tabs
World As We Know It Tabs
Star Crossed Ukulele


Song lyrics



↑ Back to top | Tablatures and chords are parodies/interpretations of the original songs. You may use it for private study, scholarship, research or language learning purposes only
© 2014 AZChords.com Contact us | Privacy policy | DMCA | Add/correct tabs | Request tabs | Top 50 tabs