>
 >
Empty Glasses 2

Empty Glasses 2 Guitar Tabs

Scary Kids Scaring Kids - Empty Glasses 2 chords, tabs, tablatures, lyrics

Guitar lessons | Add/correct | Request | Top 50 tabs Artists:  A B C D E F G H I J K L M N O P Q R S T U V W X Y Z 0-9

Empty Glasses 2 Guitar Tabs – Scary Kids Scaring Kids

CD, Sheet music, Poster

Do you like Empty Glasses 2? Share with your friends now
TabsTabs v2Tabs v3

Tabs for the song: Empty Glasses by Scary Kids Scaring Kids
Please rate and let me know if you have any corrections. Thank you.

Guitar 1 = Right Speaker
Guitar 2 = Left Speaker

Tuning: Drop D (D A D G B E)


Intro
Guitar 1:
E||-------------------------------------------------------------------|
B||-------------------------------------------------------------------|
G||------5-5-2-2-----5-5-2-2-4-4---------5-5-2-2-----5-5-2-2-4-4------|
D||--3-3---------3-3-------------5-5-3-3---------3-3-------------5-5--|
A||-------------------------------------------------------------------|
D||-------------------------------------------------------------------|


Guitar 2:
E||-------------------------------------------------------------------|
B||------5-5---------5-5-----3-3---------5-5---------5-5-----3-3------|
G||----------5-5---------5-5-----4-4---------5-5---------5-5-----4-4--|
D||--3-3---------3-3-----------------3-3---------3-3------------------|
A||-------------------------------------------------------------------|
D||-------------------------------------------------------------------|



Verse
Guitar 1:
E||------------------------------------------------------|
B||--------5~------3~------------------------------------|
G||--------5~------4~---------------5~-------------------|
D||---------------------------------5~--------------5~---|
A||--0-0-0--------------------3-3-3-3~--------------5~---|
D||-------------------------------------------5-5-5-5~---|
     . . .                    . . .           . . .


E||------------------------------------------------------|
B||------------------------------------------------------|
G||--------2~-----------------------5~-------------------|
D||--------2~-----------------------5~--------------5~---|
A||--0-0-0-0~-----------------3-3-3-3~--------------5~---|
D||-------------------------------------------5-5-5-5~---|
     . . .                    . . .           . . .


Guitar 2:
E||--------------------3~--------------------------------|
B||--------------3~----3~--------------------------------|
G||--------2~----2~-----------------5~-------------------|
D||--------2~-----------------------5~--------------5~---|
A||--0-0-0-0~-----------------3-3-3-3~--------------5~---|
D||-------------------------------------------5-5-5-5~---|
     . . .                    . . .           . . .


E||--------------3~----3~--------------------------------|
B||--------5~----3~----3~--------------------------------|
G||--------5~-----------------------5~-------------------|
D||---------------------------------5~--------------5~---|
A||--0-0-0--------------------3-3-3-3~--------------5~---|
D||-------------------------------------------5-5-5-5~---|
     . . .                    . . .           . . .



Chorus
Guitar 1:
E||--------------------------------------------------|
B||--------------------------------------------------|
G||------9----------10-------------------------------|
D||--333-x-----0000-x------77777777---101010---555---|
A||--333-7-----0000-8------77777777---101010---555---|
D||--333-------0000--------77777777---101010---555---|


E||---------------------------------------------|
B||---------------------------------------------|
G||------9----------10--------------------------| x2
D||--333-x-----0000-x------77777777--55555555---|
A||--333-7-----0000-8------77777777--55555555---|
D||--333-------0000--------77777777--55555555---|


E||---------------------|
B||---------------------|
G||------9----------10--|
D||--333-x-----0000-x---|
A||--333-7-----0000-8---|
D||--333-------0000-----|


Guitar 2:
E||--------------------------------------------------|
B||--------------------------------------------------|
G||------5----------7--------------------------------|
D||--333-x-----0000-x------77777777---101010---555---|
A||--333-3-----0000-5------77777777---101010---555---|
D||--333-------0000--------77777777---101010---555---|


E||---------------------------------------------|
B||---------------------------------------------|
G||------5----------7---------------------------| x2
D||--333-x-----0000-x------77777777--55555555---|
A||--333-3-----0000-5------77777777--55555555---|
D||--333-------0000--------77777777--55555555---|


E||---------------------|
B||---------------------|
G||------5----------7---|
D||--333-x-----0000-x---|
A||--333-3-----0000-5---|
D||--333-------0000-----|



Pre-Verse
Guitar 1:
E||------------------------------------|
B||------------------------------------|
G||------5-5-2-2-----5-5-2-2-4-4-------|
D||------------------------------5-5---|
A||--0-0---------0-0-------------------|
D||------------------------------------|


Guitar 2:
E||------------------------------------|
B||------5-5---------5-5-----3-3-------|
G||----------5-5---------5-5-----4-4---|
D||------------------------------------|
A||--0-0---------0-0-------------------|
D||------------------------------------|



Verse
Guitar 1:
E||--------------------3~--------------------------------|
B||--------------3~----3~--------------------------------|
G||--------2~----2~-----------------5~-------------------|
D||--------2~-----------------------5~--------------5~---|
A||--0-0-0-0~-----------------3-3-3-3~--------------5~---|
D||-------------------------------------------5-5-5-5~---|
     . . .                    . . .           . . .


Guitar 2:
E||--------------3~----3~--------------------------------|
B||--------5~----3~----3~--------------------------------|
G||--------5~-----------------------5~-------------------|
D||---------------------------------5~--------------5~---|
A||--0-0-0--------------------3-3-3-3~--------------5~---|
D||-------------------------------------------5-5-5-5~---|
     . . .                    . . .           . . .



Guitar 1:
E||-------------------------------------------------------------------|
B||-------------------------------------------------------------------|
G||------5-5-2-2-----5-5-2-2-4-4---------5-5-2-2-----5-5-2-2-4-4------|
D||------------------------------5-5-----------------------------5-5--|
A||--0-0---------0-0-----------------0-0---------0-0------------------|
D||-------------------------------------------------------------------|
     . .         . .                 . .         . .

E||-------------------------------------------------------------------|
B||-------------------------------------------------------------------|
G||------5-5-2-2-----5-5-2-2-4-4---------5-5-2-2-----5-5-2-2-4-4------|
D||------------------------------5-5-----------------------------5-5--|
A||--3-3---------3-3--------------------------------------------------|
D||----------------------------------5-5---------5-5------------------|
     . .         . .                 . .         . .

E||------------------------------------|
B||------------------------------------|
G||------5-5-2-2-----5-5-2-2-4-4-------|
D||------------------------------5-5---|
A||------------------------------------|
D||--5-5---------5-5-------------------|
     . .         . .


Guitar 2:
E||-------------------------------------------------------------------|
B||------5-5---------5-5-----3-3---------5-5---------5-5-----3-3------|
G||----------5-5---------5-5-----4-4---------5-5---------5-5-----4-4--|
D||-------------------------------------------------------------------|
A||--0-0---------0-0-----------------0-0---------0-0------------------|
D||-------------------------------------------------------------------|
     . .         . .                 . .         . .

E||-------------------------------------------------------------------|
B||------5-5---------5-5-----3-3---------5-5---------5-5-----3-3------|
G||----------5-5---------5-5-----4-4---------5-5---------5-5-----4-4--|
D||-------------------------------------------------------------------|
A||--3-3---------3-3--------------------------------------------------|
D||----------------------------------5-5---------5-5------------------|
     . .         . .                 . .         . .

E||------------------------------------|
B||------------------------------------|
G||------5-5---------5-5-----3-3-------|
D||----------5-5---------5-5-----4-4---|
A||------------------------------------|
D||--5-5---------5-5-------------------|
     . .         . .


Chorus
Guitar 1:
E||--------------------------------------------------|
B||--------------------------------------------------|
G||------9----------10-------------------------------|
D||--333-x-----0000-x------77777777---101010---555---|
A||--333-7-----0000-8------77777777---101010---555---|
D||--333-------0000--------77777777---101010---555---|


E||---------------------------------------------|
B||---------------------------------------------|
G||------9----------10--------------------------| x2
D||--333-x-----0000-x------77777777--55555555---|
A||--333-7-----0000-8------77777777--55555555---|
D||--333-------0000--------77777777--55555555---|


E||---------------------|
B||---------------------|
G||------9----------10--|
D||--333-x-----0000-x---|
A||--333-7-----0000-8---|
D||--333-------0000-----|


Guitar 2:
E||--------------------------------------------------|
B||--------------------------------------------------|
G||------5----------7--------------------------------|
D||--333-x-----0000-x------77777777---101010---555---|
A||--333-3-----0000-5------77777777---101010---555---|
D||--333-------0000--------77777777---101010---555---|


E||---------------------------------------------|
B||---------------------------------------------|
G||------5----------7---------------------------| x2
D||--333-x-----0000-x------77777777--55555555---|
A||--333-3-----0000-5------77777777--55555555---|
D||--333-------0000--------77777777--55555555---|


E||---------------------|
B||---------------------|
G||------5----------7---|
D||--333-x-----0000-x---|
A||--333-3-----0000-5---|
D||--333-------0000-----|



Pre-Verse
Guitar 1:
E||------------------------------------|------------------------------------|
B||------------------------------------|------------------------------------|
G||------5-5-2-2-----5-5-2-2-4-4-------|------5-5-2-2-----5-5-2-2-4-4-------|
D||--2-2---------2-2-------------5-5---|--2-2---------2-2-------------5-5---|
A||--0-0---------0-0-------------------|--0-0---------0-0-------------------|
D||------------------------------------|------------------------------------|


Guitar 2:
E||------------------------------------|------------------------------------|
B||------------------------------------|------5-5---------5-5-----3-3-------|
G||------------------------------------|----------5-5---------5-5-----4-4---|
D||--2-2---------2-2-------------------|--2-2---------2-2-------------------|
A||--0-0---------0-0-------------------|--0-0---------0-0-------------------|
D||------------------------------------|------------------------------------|



Bridge
Guitar 1:
E||--------------------------3-3----------------------------------0h3---|
B||------5-5-3-3-----------------3h5------5-5-3-3-------------0h3-------|
G||------------------4-4-5-5--------------------------4-4-5-5-----------|
D||--3-3---------3-3------------------3-3---------3-3-------------------|
A||---------------------------------------------------------------------|
D||---------------------------------------------------------------------|
     . .         . .                  . .         . .

E||-------------------------------------------------------------------|
B||-------------------------------------------------------------------|
G||------5-5-2-2-----5-5-2-2-4-4---------5-5-2-2-----5-5-2-2-4-4------|
D||------------------------------5-5-----------------------------5-5--|
A||--0-0---------0-0-----------------0-0---------0-0------------------|
D||-------------------------------------------------------------------|
     . .         . .                 . .         . .

E||--------------------------3-3----------------------------------0h3---|
B||------5-5-3-3-----------------3h5------5-5-3-3-------------0h3-------|
G||------------------4-4-5-5--------------------------4-4-5-5-----------|
D||--3-3---------3-3------------------3-3---------3-3-------------------|
A||---------------------------------------------------------------------|
D||---------------------------------------------------------------------|
     . .         . .                  . .         . .

E||----------------------------------------------------|
B||----------------------------------------------------|
G||------5-5-2-2-----5-5-2-2-4-4---------5-5-2-2-------|
D||------------------------------5-5-------------------|
A||--0-0---------0-0-----------------0-0---------0-0---|
D||----------------------------------------------------|
     . .         . .                 . .         . .


Guitar 2:
E||---------------------------------------------------------------------|
B||--------------------------5-5----------------------------------3h5---|
G||------5-5-4-4---------2-2-----4h5------5-5-4-4---------2-2-0h2-------|
D||--3-3---------3-3-5-5--------------3-3---------3-3-5-5---------------|
A||---------------------------------------------------------------------|
D||---------------------------------------------------------------------|
     . .         . .                  . .         . .

E||-------------------------------------------------------------------|
B||------5-5---------5-5-----3-3---------5-5---------5-5-----3-3------|
G||----------5-5---------5-5-----4-4---------5-5---------5-5-----4-4--|
D||-------------------------------------------------------------------|
A||--0-0---------0-0-----------------0-0---------0-0------------------|
D||-------------------------------------------------------------------|
     . .         . .                 . .         . .

E||---------------------------------------------------------------------|
B||--------------------------5-5----------------------------------3h5---|
G||------5-5-4-4---------2-2-----4h5------5-5-4-4---------2-2-0h2-------|
D||--3-3---------3-3-5-5--------------3-3---------3-3-5-5---------------|
A||---------------------------------------------------------------------|
D||---------------------------------------------------------------------|
     . .         . .                  . .         . .

E||----------------------------------------------------|
B||------5-5---------5-5-----3-3---------5-5-----------|
G||----------5-5---------5-5-----4-4---------5-5-------|
D||----------------------------------------------------|
A||--0-0---------0-0-----------------0-0---------0-0---|
D||----------------------------------------------------|
     . .         . .                 . .         . .


Chorus
Guitar 1:
E||--------------------------------------------------|
B||--------------------------------------------------|
G||------9----------10-------------------------------|
D||--333-x-----0000-x------77777777---101010---555---|
A||--333-7-----0000-8------77777777---101010---555---|
D||--333-------0000--------77777777---101010---555---|


E||---------------------------------------------|
B||---------------------------------------------|
G||------9----------10--------------------------| x2
D||--333-x-----0000-x------77777777--55555555---|
A||--333-7-----0000-8------77777777--55555555---|
D||--333-------0000--------77777777--55555555---|


E||---------------------|
B||---------------------|
G||------9----------10--|
D||--333-x-----0000-x---|
A||--333-7-----0000-8---|
D||--333-------0000-----|


Guitar 2:
E||--------------------------------------------------|
B||--------------------------------------------------|
G||------5----------7--------------------------------|
D||--333-x-----0000-x------77777777---101010---555---|
A||--333-3-----0000-5------77777777---101010---555---|
D||--333-------0000--------77777777---101010---555---|


E||---------------------------------------------|
B||---------------------------------------------|
G||------5----------7---------------------------| x2
D||--333-x-----0000-x------77777777--55555555---|
A||--333-3-----0000-5------77777777--55555555---|
D||--333-------0000--------77777777--55555555---|


E||---------------------|
B||---------------------|
G||------5----------7---|
D||--333-x-----0000-x---|
A||--333-3-----0000-5---|
D||--333-------0000-----|



Outro
Guitar 1:
E||----------------------------------------------------|
B||----------------------------------------------------|
G||------5-5-2-2-----5-5-2-2-4-4---------5-5-2-----2---|
D||------------------------------5-5---------------2---|
A||--0-0---------0-0-----------------0-0-------0-0-0---|
D||----------------------------------------------------|
                                               . .

Guitar 2:
E||----------------------------------------------------|
B||------5-5---------5-5-----3-3---------5-5-----------|
G||----------5-5---------5-5-----4-4---------5-----2---|
D||------------------------------------------------2---|
A||--0-0---------0-0-----------------0-0-------0-0-0---|
D||----------------------------------------------------|
                                               . .




Tablature Legend
----------------
 h   - hammer-on
 p   - pull-off
 b   - bend
 r   - release bend
 *   - pinch harmonic
 '   - natural harmonic
 x   - mute note
 .   - palm mute
 /   - slide down
 \   - slide up





Comments


Popular Scary Kids Scaring Kids tabs & chords
My Darkest Hour Bass Tabs
Star Crossed Bass Tabs
The Only Medicine 2 Bass Tabs
A Breath Of Sunshine Tabs
Blood Runs Forever Tabs
Darkest Hour Intro Tabs
Snake Devil Tabs
Snake Devil 2 Tabs
The Only Medicine Tabs
World As We Know It Tabs


Song lyrics



↑ Back to top | Tablatures and chords are parodies/interpretations of the original songs. You may use it for private study, scholarship, research or language learning purposes only
© 2014 AZChords.com Contact us | Privacy policy | DMCA | Add/correct tabs | Request tabs | Top 50 tabs