>
 >
Drowning

Drowning Guitar Tabs

Scary Kids Scaring Kids - Drowning chords, tabs, tablatures, lyrics

Guitar lessons | Add/correct | Request | Top 50 tabs Artists:  A B C D E F G H I J K L M N O P Q R S T U V W X Y Z 0-9

Drowning Guitar Tabs – Scary Kids Scaring Kids

CD, Sheet music, Poster

Do you like Drowning? Share with your friends now
TabsTabs v2

Tabs For the song: Drowning by Scary Kids Scaring Kids
Please rate and let me know if you have any corrections. Thank you.


*Updated on 04/17/2012 - Revisited and updated entire tab. Should be as 
accurate as can be.


Tuning: Standard (E A D G B E)


Intro
Guitar 1:
E||-------0------0-------------0------0-------------0------0------|
B||-----8------8-------------8------8-------------8------8--------|
G||--11-----11-----11-----11-----11-----11-----11-----11-----11---|
D||---------------------------------------------------------------|
A||---------------------------------------------------------------|
E||---------------------------------------------------------------|



Guitar 2:
E||---------------------------------------------------------------|
B||--12------------12-----12------------12-----12------------12---|
G||-------9h12---9-------------9h12---9-------------9h12---9------|
D||-----9------9-------------9------9-------------9------9--------|
A||---------------------------------------------------------------|
E||---------------------------------------------------------------|



Verse
Guitar 1:
E||----------------------------------------------------------------------------------|
B||-8-8-88----8-8-88----8-8-88----8-8-88----5-5-55----5-5-55----7-7-77----7-7-77-7---|
G||-9-9-99----9-9-99----9-9-99----9-9-99----5-5-55----5-5-55----7-7-77----8-8-88-8---| x2
D||-9-9-99----9-9-99----9-9-99----9-9-99----5-5-55----5-5-55----7-7-77----8-8-88-8---|
A||-7-7-77----7-7-77----7-7-77----7-7-77----3-3-33----3-3-33----5-5-55----6-6-66-6---|
E||-0-0-00----0-0-00----0-0-00----0-0-00---------------------------------------------|



Guitar 2:
E||------7---5--------------7---5--------------7---5--------------7---5------|
B||--3/5---5---8-7-8----3/5---5---8-7-8----3/5---5---8-7-8----3/5---5---8-7--|
G||--------------------------------------------------------------------------|
D||--------------------------------------------------------------------------|
A||--------------------------------------------------------------------------|
E||--------------------------------------------------------------------------|
           .                  .                  .                  .


E||------7---5--------------7---5--------------7---5--------------7---5~-----|
B||--3/5---5---8-7-8----3/5---5---8-7-8----3/5---5---8-7-8----3/5---5----7~--|
G||--------------------------------------------------------------------------| x2
D||--------------------------------------------------------------------------|
A||--------------------------------------------------------------------------|
E||--------------------------------------------------------------------------|
           .                  .                  .                  .



Pre-Chorus
Guitar 1:
E||--5h7-----------------------------|
B||------0-7/8-0-5-------------------|
G||----------------7-7/9-------------|
D||----------------------9-7-9-7-----|
A||------------------------------9---|
E||----------------------------------|


Guitar 2:
E||--2h3-----------------------------|
B||------0-3/5-0---------------------|
G||--------------4-2-2/4-------------|
D||----------------------5-4-5-4-----|
A||------------------------------5---|
E||----------------------------------|



Chorus
Guitar 1:
E||------------------------------------|
B||-88888888888888885555555555555555---|
G||-99999999999999995555555555555555---|
D||-99999999999999995555555555555555---|
A||-77777777777777773333333333333333---|
E||------------------------------------|


E||-----------------------------------------------|
B||----------5-5-5----------5-5-5----------7-7-7--|
G||----------5-5-5----------5-5-5----------7-7-7--| x2
D||----------5-5-5----------5-5-5----------7-7-7--|
A||--333333333-3-3--333333333-3-3--555555555-5-5--|
E||-----------------------------------------------|
     ........       ........       ........



Pre-Verse
Guitar 1:
E||--5h7-------------|
B||------0-7/8-0-----|
G||--------------7---|
D||------------------|
A||------------------|
E||------------------|


Guitar 2:
E||--2h3-------------|
B||------0-3/5-0-----|
G||--------------2---|
D||------------------|
A||------------------|
E||------------------|



Verse
Guitar 1:
E||----------------------------------------------------------------------------------|
B||-8-8-88----8-8-88----8-8-88----8-8-88----5-5-55----5-5-55----7-7-77----7-7-77-7---|
G||-9-9-99----9-9-99----9-9-99----9-9-99----5-5-55----5-5-55----7-7-77----8-8-88-8---| x2
D||-9-9-99----9-9-99----9-9-99----9-9-99----5-5-55----5-5-55----7-7-77----8-8-88-8---|
A||-7-7-77----7-7-77----7-7-77----7-7-77----3-3-33----3-3-33----5-5-55----6-6-66-6---|
E||-0-0-00----0-0-00----0-0-00----0-0-00---------------------------------------------|



Guitar 2:
E||------7---5--------------7---5--------------7---5--------------7---5------|
B||--3/5---5---8-7-8----3/5---5---8-7-8----3/5---5---8-7-8----3/5---5---8-7--|
G||--------------------------------------------------------------------------|
D||--------------------------------------------------------------------------|
A||--------------------------------------------------------------------------|
E||--------------------------------------------------------------------------|
           .                  .                  .                  .


E||------7---5--------------7---5--------------7---5--------------7---5~-----|
B||--3/5---5---8-7-8----3/5---5---8-7-8----3/5---5---8-7-8----3/5---5----7~--|
G||--------------------------------------------------------------------------| x2
D||--------------------------------------------------------------------------|
A||--------------------------------------------------------------------------|
E||--------------------------------------------------------------------------|
           .                  .                  .                  .



Pre-Chorus
Guitar 1:
E||--5h7-----------------------------|
B||------0-7/8-0-5-------------------|
G||----------------7-7/9-------------|
D||----------------------9-7-9-7-----|
A||------------------------------9---|
E||----------------------------------|


Guitar 2:
E||--2h3-----------------------------|
B||------0-3/5-0---------------------|
G||--------------4-2-2/4-------------|
D||----------------------5-4-5-4-----|
A||------------------------------5---|
E||----------------------------------|



Chorus
Guitar 1:
E||------------------------------------|
B||-88888888888888885555555555555555---|
G||-99999999999999995555555555555555---|
D||-99999999999999995555555555555555---|
A||-77777777777777773333333333333333---|
E||------------------------------------|


E||-----------------------------------------------|
B||----------5-5-5----------5-5-5----------7-7-7--|
G||----------5-5-5----------5-5-5----------7-7-7--|
D||----------5-5-5----------5-5-5----------7-7-7--|
A||--333333333-3-3--333333333-3-3--555555555-5-5--|
E||-----------------------------------------------|
     ........       ........       ........


E||------------------------------------|
B||-88888888888888885555555555555555---|
G||-99999999999999995555555555555555---|
D||-99999999999999995555555555555555---|
A||-77777777777777773333333333333333---|
E||------------------------------------|
                                       

E||-----------------------------------------------------------|
B||---------5-5-5----------5-5-5----------7-7-7--7-7-7-8-8-8--|
G||---------5-5-5----------5-5-5----------7-7-7--7-7-7-9-9-9--|
D||---------5-5-5----------5-5-5----------7-7-7--7-7-7-9-9-9--|
A||-333333333-3-3--333333333-3-3--555555555-5-5--5-5-5-7-7-7--|
E||-----------------------------------------------------------|
    ........       ........       ........



Bridge
Guitar 1:
E||-------10--12----14h15------------------|
B||-10h12-----------------------10h12------|
G||-----------------------11h12------------|
D||-----------------------------------12---|
A||----------------------------------------|
E||----------------------------------------|



Chorus
Guitar 1:
E||------------------------------------|
B||-88888888888888885555555555555555---|
G||-99999999999999995555555555555555---|
D||-99999999999999995555555555555555---|
A||-77777777777777773333333333333333---|
E||------------------------------------|


E||-----------------------------------------------|
B||----------5-5-5----------5-5-5----------7-7-7--|
G||----------5-5-5----------5-5-5----------7-7-7--|
D||----------5-5-5----------5-5-5----------7-7-7--|
A||--333333333-3-3--333333333-3-3--555555555-5-5--|
E||-----------------------------------------------|
     ........       ........       ........


E||------------------------------------|
B||-88888888888888885555555555555555---|
G||-99999999999999995555555555555555---|
D||-99999999999999995555555555555555---|
A||-77777777777777773333333333333333---|
E||------------------------------------|
                                       

E||-------------------------------------------------------------|
B||---------5-5-5----------5-5-5----------7-7-7----------7-7-7--|
G||---------5-5-5----------5-5-5----------7-7-7----------7-7-7--|
D||---------5-5-5----------5-5-5----------7-7-7----------7-7-7--|
A||-333333333-3-3--333333333-3-3--555555555-5-5--555555555-5-5--|
E||-------------------------------------------------------------|
    ........       ........       ........       ........


E||-------------------------------------------------|
B||----------5-5-5----------5-5-5----------7-7-7-7--|
G||----------5-5-5----------5-5-5----------7-7-7-7--|
D||----------5-5-5----------5-5-5----------7-7-7-7--|
A||--333333333-3-3--333333333-3-3--555555555-5-5-5--|
E||-------------------------------------------------|
     ........       ........       ........



Outro
Guitar 1:
E||------------------------------------------------|
B||-8-8-88----8-8-88----8-8-88----------8--8--8-8--|
G||-9-9-99----9-9-99----9-9-99----------9--9--9-9--|
D||-9-9-99----9-9-99----9-9-99----------9--9--9-9--|
A||-7-7-77----7-7-77----7-7-77----------7--7--7-7--|
E||-0-0-00----0-0-00----0-0-00--000000--0--0--0-0--|
                                ......




Tablature Legend
----------------
 h   - hammer-on
 p   - pull-off
 b   - bend
 r   - release bend
 *   - pinch harmonic
 '   - natural harmonic
 x   - mute note
 .   - palm mute
 /   - slide down
 \   - slide up





Comments


Popular Scary Kids Scaring Kids tabs & chords
My Darkest Hour Bass Tabs
My Darkest Hour 1 Bass Tabs
Notorious Thugs Bass Tabs
Blood Runs Forever 3 Tabs
City Sleeps In Flames Tabs
Darkest Hour Intro Tabs
Free Again Intro Tabs
My Darkest Hour 1 Tabs
The Bright Side Of Suffering Tabs
The Only Medicine Tabs


Song lyrics



↑ Back to top | Tablatures and chords are parodies/interpretations of the original songs. You may use it for private study, scholarship, research or language learning purposes only
© 2014 AZChords.com Contact us | Privacy policy | DMCA | Add/correct tabs | Request tabs | Top 50 tabs