>
 >
Drowning 1

Drowning 1 Guitar Tabs

Scary Kids Scaring Kids - Drowning 1 chords, tabs, tablatures, lyrics

Guitar lessons | Add/correct | Request | Top 50 tabs Artists:  A B C D E F G H I J K L M N O P Q R S T U V W X Y Z 0-9

Drowning 1 Guitar Tabs – Scary Kids Scaring Kids

CD, Sheet music, Poster

Do you like Drowning 1? Share with your friends now
TabsTabs v2
I will mark the different parts of the song and at the end I will write how many 
times you must do each part

Intro
      E   E  E   E   E  E   Q     
E||------------------------------|
B||--10--12----------------12----|
G||-------------11--12-----------|
D||----------9----------9--------|   
A||------------------------------|
E||------------------------------|


Verse 1

In verse 1 you can do this

  E   E   E   E   E   E  E   E   
--------------------------------|
--0--12--10---------------------|
-------------12--11--12--9--12--|  
--------------------------------|
--------------------------------|
--------------------------------|

Or alternatively you can do this 

Verse 1 (alt)


  E   E   E   E   E   E  E   E   
--------------------------------|
--0--12--10---------------------|
-------------12--11--12--9--12--| x 4
--------------------------------|
--------------------------------|
--------------------------------|


  E   E   E   E   E   E  E   E   
--------------------------------|
--0--8--7-----------------------|
-------------9--7--9--5--9------| x 2
--------------------------------|
--------------------------------|
--------------------------------|


  E   E   E   E   E   E  E   E   
--------------------------------|
--0--10--8----------------------|
-------------11--9--11--7--9----|
--------------------------------|
--------------------------------|
--------------------------------|


  E   E   E   E   E   E  E   E   
--------------------------------|
--0--12--10---------------------|
-------------12--11--12--9--12--|
--------------------------------|
--------------------------------|
--------------------------------|


(Interlude 1)



   E   E  E   E   E  E   E  E   
-------------------------------|
--10--12-----------------------|
-------------11--12-----11--7--|
----------9----------9---------|
-------------------------------|
-------------------------------|


  E  E  E  E  E  E  Q     
-------------------------|
-------------------------|
--7--9-------------------|
--------9--7--9--7-------|
--------------------9----|
-------------------------|

Chorus

  E  E  E  E  E  E  E  E   
--------------------------|
--------------------------|
--------------------------|
--9--9--9--9--9--9--9--9--|
--7--7--7--7--7--7--7--7--|
--7--7--7--7--7--7--7--7--|


  E  E  E  E  E  E  E  E   
--------------------------|
--------------------------|
--------------------------|
--9--9--9--9--9--9--9--9--|
--7--7--7--7--7--7--7--7--|
--7--7--7--7--7--7--7--7--|


  E  E  E  E  E  E  E  E   
--------------------------|
--------------------------|
--------------------------|
--7--7--7--7--7--7--7--7--|
--5--5--5--5--5--5--5--5--|
--5--5--5--5--5--5--5--5--|


  E  E  E  E  E  E  E  E   
--------------------------|
--------------------------|
--------------------------|
--7--7--7--7--7--7--7--7--|
--5--5--5--5--5--5--5--5--|
--5--5--5--5--5--5--5--5--|


  PM PM PM PM PM PM PM PM             
  S  S  S  S  S  S  S  S  E.  E.  E   
-------------------------------------|
-------------------------------------|
--------------------------5---5---5--|
--5--5--5--5--5--5--5--5--5---5---5--|
--3--3--3--3--3--3--3--3--3---3---3--|
-------------------------------------|


  PM PM PM PM PM PM PM PM             
  S  S  S  S  S  S  S  S  E.  E.  E   
-------------------------------------|
-------------------------------------|
--------------------------5---5---5--|
--5--5--5--5--5--5--5--5--5---5---5--|
--3--3--3--3--3--3--3--3--3---3---3--|
-------------------------------------|


  PM PM PM PM PM PM PM PM             
  S  S  S  S  S  S  S  S  E.  E.  E   
-------------------------------------|
-------------------------------------|
--------------------------7---7---7--|
--7--7--7--7--7--7--7--7--7---7---7--|
--5--5--5--5--5--5--5--5--5---5---5--|
-------------------------------------|


Interlude 2 (After the chorus)


   E   E  E   E   E  E   Q     
------------------------------|
--10--12----------------------|
-------------11--12-----------|
----------9----------9--12----|
------------------------------|
------------------------------|

Then after repeating all you must repeat, at the end of the chorus you do

Interlude 3 (After the second chorus)

   E   E   E   E   E   E   E   E   
----------------------14--15--17--|
------------------15--------------|
--------------16------------------|
----------16----------------------|
------14--------------------------|
--15------------------------------|


Then repeat chorus and after it, you play

Ending of chorus 3

  E.  E.  E  E.  E.  E               
------------------------|-----|-----|
------------------------|-----|-----|
--8---8---8--9---9---9--|-----|-----|
--8---8---8--9---9---9--|-----|-----|
--6---6---6--7---7---7--|-----|-----|
------------------------|-----|-----|

Then the keyboard will do a strange thing and this is the acoustic part

Acoustic Part (ON THE LAST TIME YOU DO IT, DO IT UNTIL THE 12 OF THE 1ST STRING)

   E   E   E   E   E   E   E   E   E   E   E   E   E   E   E   E     
--------------------------10--12-|-15--14----------------------------|
------------------10--12---------|------------------10--12-----------|
----------11--12-----------------|----------11--12-------------------|
--12--14-------------------------|---------------------------12--14--|
---------------------------------|-----------------------------------|
---------------------------------|-----------------------------------|

AND PLAY THIS CHORD AT THE END

End of acoustic part


  E  H        Q.            
---------------------|-----|
---------------------|-----|
---------------------|-----|
--7------------------|-----|
--5------------------|-----|
--5------------------|-----|

Then you repeat chorus + Interlude 3 + Chorus + Ending of chorus 3 and then you do 

Ending of the last chorus


  PM PM PM PM PM PM PM PM             
  S  S  S  S  S  S  S  S  E.  E.  E   
-------------------------------------|
-------------------------------------|
--9--9--9--9--9--9--9--9--9---9---9--|
--9--9--9--9--9--9--9--9--9---9---9--|
--7--7--7--7--7--7--7--7--7---7---7--|
--------------------------0---0---0--|


  PM PM PM PM PM PM PM PM             
  S  S  S  S  S  S  S  S  E.  E.  E   
-------------------------------------|
-------------------------------------|
--9--9--9--9--9--9--9--9--9---9---9--|
--9--9--9--9--9--9--9--9--9---9---9--|
--7--7--7--7--7--7--7--7--7---7---7--|
--------------------------0---0---0--|


  PM PM PM PM PM PM PM PM             
  S  S  S  S  S  S  S  S  E.  E.  E   
-------------------------------------|
-------------------------------------|
--7--7--7--7--7--7--7--7--7---7---7--|
--7--7--7--7--7--7--7--7--7---7---7--|
--5--5--5--5--5--5--5--5--5---5---5--|
--------------------------5---5---5--|


   E   E   E   E   E   E   E   E   
----------------------14--15--17--|
------------------15--------------|
--------------16------------------|
----------16----------------------|
------14--------------------------|
--15------------------------------|

And you end with this

ENDING

  E.  E.  E  E  Q.      
-----------------------|
-----------------------|
-----------------------|
--2---2---2--2---------|
--2---2---2--2---------|
--0---0---0--0---------|


  E.  E.  E  E  Q.      
-----------------------|
-----------------------|
-----------------------|
--2---2---2--2---------|
--2---2---2--2---------|
--0---0---0--0---------|


  E.  E.  E  E  E  S S S S    E.  E.  E  E   
---------------------------|----------------|
---------------------------|----------------|
---------------------------|----------------|
--2---2---2--2--2--2-2-2-2-|--2---2---2--2--|
--2---2---2--2--2--2-2-2-2-|--2---2---2--2--|
--0---0---0--0--0--0-0-0-0-|--0---0---0--0--|


-----||
-----||
-----||
-----||
-----||
-----||

Song structure for guitar 1

Intro x 3
Verse x 16 OR verse (alt) x 2
Interlude 1
Chorus
Interlude 2
Verse x 16 OR verse (alt) x 2
Interlude 1
Chorus
Interlude 3
Chorus
Ending of chorus 3
Acoustic part x 11 1/2 (you end it at the half and do the chord)
Chorus
Interlude 3
Chorus
Ending of chorus 3
Ending of the last chorus
Interlude 3
ENDING


The second guitar goes like this 

INTRO
      E   E  E   E   E  E   Q     
E||------------------------------|
B||------------------------------|
G||--11--12---------12--9--11----|
D||----------9--12---------------|
A||------------------------------|
E||------------------------------|



Verse 1


  E.  E.  E  E  E  Q     
------------------------|
--8---8---8--8----------|
--x---x---x--x----------| x 4
--9---9---9--9----------|
--7---7---7--7----------|
--7---7---7--7----------|


  E.  E.  E  E  E  Q     
------------------------|
------------------------|
--5---5---5--5----------|
--5---5---5--5----------| x 2
--3---3---3--3----------|
--3---3---3--3----------|


  E.  E.  E  E  E  Q     
------------------------|
------------------------|
--7---7---7--7----------|
--7---7---7--7----------|
--5---5---5--5----------|
--5---5---5--5----------|


  E.  E.  E  E  E  Q     
------------------------|
------------------------|
--8---8---8--8----------|
--8---8---8--8----------|
--6---6---6--6----------|
--6---6---6--6----------|


Interlude 1

   E   E  E   E  E  E  E  E   
-----------------------------|
-----------------------------|
--11--12---------9--0--------|
----------9--12--------9--7--|
-----------------------------|
-----------------------------|


  E  E   E  E   E  E   Q     
----------------------------|
----------------------------|
----------------------------|
--7--9----------------------|
--------10--9--10--9--------|
----------------------10----|

Chorus

  E  E  E  E  E  E  E  E   
--------------------------|
--------------------------|
--------------------------|
--9--9--9--9--9--9--9--9--|
--7--7--7--7--7--7--7--7--|
--7--7--7--7--7--7--7--7--|


  E  E  E  E  E  E  E  E   
--------------------------|
--------------------------|
--------------------------|
--9--9--9--9--9--9--9--9--|
--7--7--7--7--7--7--7--7--|
--7--7--7--7--7--7--7--7--|


  E  E  E  E  E  E  E  E   
--------------------------|
--------------------------|
--------------------------|
--7--7--7--7--7--7--7--7--|
--5--5--5--5--5--5--5--5--|
--5--5--5--5--5--5--5--5--|


  E  E  E  E  E  E  E  E   
--------------------------|
--------------------------|
--------------------------|
--7--7--7--7--7--7--7--7--|
--5--5--5--5--5--5--5--5--|
--5--5--5--5--5--5--5--5--|


  PM PM PM PM PM PM PM PM             
  S  S  S  S  S  S  S  S  E.  E.  E   
-------------------------------------|
-------------------------------------|
--------------------------5---5---5--|
--5--5--5--5--5--5--5--5--5---5---5--|
--3--3--3--3--3--3--3--3--3---3---3--|
-------------------------------------|


  PM PM PM PM PM PM PM PM             
  S  S  S  S  S  S  S  S  E.  E.  E   
-------------------------------------|
-------------------------------------|
--------------------------5---5---5--|
--5--5--5--5--5--5--5--5--5---5---5--|
--3--3--3--3--3--3--3--3--3---3---3--|
-------------------------------------|


  PM PM PM PM PM PM PM PM             
  S  S  S  S  S  S  S  S  E.  E.  E   
-------------------------------------|
-------------------------------------|
--------------------------7---7---7--|
--7--7--7--7--7--7--7--7--7---7---7--|
--5--5--5--5--5--5--5--5--5---5---5--|
-------------------------------------|

Interlude 2


   E   E  E   E  E  E  Q     
----------------------------|
----------------------------|
--11--12---------9----------|
----------9--12-----7--9----|
----------------------------|
----------------------------|

Interlude 3


   E   E   E   E   E   E   E   E   
----------------------12--14--15--|
------------------12--------------|
--------------12------------------|
----------12----------------------|
--10--12--------------------------|
----------------------------------|

Ending of chorus 3


  E.  E.  E  E.  E.  E                     
------------------------|-----|-----|-----|
------------------------|-----|-----|-----|
--8---8---8--9---9---9--|-----|-----|-----|
--8---8---8--9---9---9--|-----|-----|-----|
--6---6---6--7---7---7--|-----|-----|-----|
------------------------|-----|-----|-----|

THEN YOU WAIT UNTIL THE PART WHERE ARE CHORDS, WHICH ARE:


CHORDS AFTER THE ACOUSTIC PART


        E.  E.  E  E  Q.      
-----------------------|
-----------------------|
-----------------------|
--9---9---9--9---------|
--7---7---7--7---------|
--7---7---7--7---------|


  E.  E.  E  E  Q.      
-----------------------|
-----------------------|
-----------------------|
--9---9---9--9---------|
--7---7---7--7---------|
--7---7---7--7---------|


  E.  E.  E  E  Q.      
-----------------------|
-----------------------|
-----------------------|
--7---7---7--7---------|
--5---5---5--5---------|
--5---5---5--5---------|


  E.  E.  E  E  Q.      
-----------------------|
-----------------------|
-----------------------|
--7---7---7--7---------|
--5---5---5--5---------|
--5---5---5--5---------|


  E.  E.  E  E  Q.      
-----------------------|
-----------------------|
-----------------------|
--5---5---5--5---------|
--3---3---3--3---------|
--3---3---3--3---------|


  E.  E.  E  E  Q.      
-----------------------|
-----------------------|
-----------------------|
--5---5---5--5---------|
--3---3---3--3---------|
--3---3---3--3---------|


  E.  E.  E  E  Q.      
-----------------------|
-----------------------|
-----------------------|
--7---7---7--7---------|
--5---5---5--5---------|
--5---5---5--5---------|


  E.  E.  E  E  Q.                
-----------------------|
-----------------------|
-----------------------|
--7--------------------|
--5--------------------|
--5--------------------|

Then you do the chorus + interlude 3 + chorus + ending of chorus 2 and you end with this



Ending of the last chorus



  PM PM PM PM PM PM PM PM             
  S  S  S  S  S  S  S  S  E.  E.  E   
-------------------------------------|
-------------------------------------|
--9--9--9--9--9--9--9--9--9---9---9--|
--9--9--9--9--9--9--9--9--9---9---9--|
--7--7--7--7--7--7--7--7--7---7---7--|
--------------------------0---0---0--|


  PM PM PM PM PM PM PM PM             
  S  S  S  S  S  S  S  S  E.  E.  E   
-------------------------------------|
-------------------------------------|
--9--9--9--9--9--9--9--9--9---9---9--|
--9--9--9--9--9--9--9--9--9---9---9--|
--7--7--7--7--7--7--7--7--7---7---7--|
--------------------------0---0---0--|


  PM PM PM PM PM PM PM PM             
  S  S  S  S  S  S  S  S  E.  E.  E   
-------------------------------------|
-------------------------------------|
--7--7--7--7--7--7--7--7--7---7---7--|
--7--7--7--7--7--7--7--7--7---7---7--|
--5--5--5--5--5--5--5--5--5---5---5--|
--------------------------5---5---5--|

Then do the interlude 3 and after it you do the ending



ENDING

  E.  E.  E  E  Q.      
-----------------------|
--8---8---8--8---------|
--9---9---9--9---------|
--x---x---x--x---------|
--7---7---7--7---------|
--7---7---7--7---------|


  E.  E.  E  E  Q.      
-----------------------|
--8---8---8--8---------|
--9---9---9--9---------|
--x---x---x--x---------|
--7---7---7--7---------|
--7---7---7--7---------|


  E.  E.  E  E  E  S S S S    E.  E.  E  E   
---------------------------|----------------|
--8---8---8--8--8--8-8-8-8-|--8---8---8--8--|
--9---9---9--9--9--9-9-9-9-|--9---9---9--9--|
--x---x---x--x--x--x-x-x-x-|--x---x---x--x--|
--7---7---7--7--7--7-7-7-7-|--7---7---7--7--|
--7---7---7--7--7--7-7-7-7-|--7---7---7--7--|



Song structure for guitar 2

Intro x 3
Verse x 2
Interlude 1
Chorus
Interlude 2
Verse x 2
Interlude 1
Chorus
Interlude 3
Chorus
Ending of chorus 3
Silence during the acoustic part
Chords after the acoustic part
Chorus
Interlude 3
Chorus
Ending of chorus 3
Ending of the last chorus
Interlude 3
ENDING



Duration Legend
---------------
W - whole
H - half
Q - quarter
E - 8th
S - 16th
T - 32nd
X - 64th
. - note dotted
|-n-|  - n-tuplets


Tablature Legend
----------------
L - tied note
x - dead note
g - grace note
(n) - ghost note
> - accentuded note
NH - natural harmonic
AH - artificial harmonic
TH - tapped harmonic
SH - semi harmonic
PH - pitch harmonic
h - hammer on
p - pull off
b - bend
br - bendRelease
pb - preBend
pbr - preBendRelease
brb - bendReleaseBend
\n/ - tremolo bar dip
\n - tremolo bar dive
-/n - tremolo bar Release up
/n\ - tremolo bar inverted dip
/n - tremolo bar return
-\n - tremolo bar Release down
S - shift slide
s - legato slide
/ -  slide into from below or out of upwards
\ -  slide into from above or out of downwards
~ - vibrato
W - wide vibrato
tr - trill
TP - tremolo picking
T - tapping
S - slap
P - pop
< - fade in
^ - brush up
v - brush down





Comments


Popular Scary Kids Scaring Kids tabs & chords
Holding On Chords
Star Crossed Chords
De-Railed Tabs
Faces 1 Tabs
Goes Without Saying Intro Tabs
Holding On Intro 1 Tabs
Snake Devil 1 Tabs
Snake Devil 2 Tabs
Star Crossed Tabs
The Only Medicine 2 Tabs


Song lyrics



↑ Back to top | Tablatures and chords are parodies/interpretations of the original songs. You may use it for private study, scholarship, research or language learning purposes only
© 2014 AZChords.com Contact us | Privacy policy | DMCA | Add/correct tabs | Request tabs | Top 50 tabs