>
 >
Blood Runs Forever

Blood Runs Forever Guitar Tabs

Scary Kids Scaring Kids - Blood Runs Forever chords, tabs, tablatures, lyrics

Guitar lessons | Add/correct | Request | Top 50 tabs Artists:  A B C D E F G H I J K L M N O P Q R S T U V W X Y Z 0-9

Blood Runs Forever Guitar Tabs – Scary Kids Scaring Kids

CD, Sheet music, Poster

Do you like Blood Runs Forever? Share with your friends now
TabsTabs v2Tabs v3
album : scary kids scaring kids
track : blood runs forever
tuning: drop-c

// Worked this out by ear. I'm about 85% confident with this.
// Includes, where possible, both guitar harmonies.
// Email me for any questions or just to say hi. I'll email back =]

00:01 intro pt.1.1 [one guitar]
D|----------------------------------------------------------------|
A|----------------------------------6p5---------------------------|
F|--------------------------------5-----7p5-----------------------|
C|---------------3p0--------0h5h7------------7p5------------------|
G|-0~---5~---3h5-----3h5-0~---------------------------------------|
C|-0~-0----0-------------0~---------------------------------------|
PM    *    *

00:04 intro pt.1.2 [one guitar]
D|----------------------------------------------------------------|
A|-----6-----------------------6----------------------------------|
F|-5/7---7b~-7-----5-------5/7---7b~-7-----5----------------------|
C|-------------5h7---5p3p0-------------5h7---5p3p0----------------|
G|----------------------------------------------------------------|
C|----------------------------------------------------------------|

00:09 intro pt.2.1 [one guitar]
D|----------------------------------------------------------------|
A|----------------------------------6p5---------------------------|
F|--------------------------------5-----7p5-----------------------|
C|---------------3p0--------0h5h7------------7p5------------------|
G|-0~---5~---3h5-----3h5-0~---------------------------------------|
C|-0~-0----0-------------0~---------------------------------------|
PM    *    *

00:13 intro pt.2.2 [one guitar]
[[F string - let ring as indicated]]
D|--------------------------------------------------------12~-----|
A|-----5---6--------6---8---------8----10-----------10------------|
F|-5/7~~~7~~~7~7~/9~~~9~~~9~9~/10~~~10~~~~10~10~/12~~~~12---------|
C|----------------------------------------------------------------|
G|----------------------------------------------------------------|
C|----------------------------------------------------------------|

00:16 intro pt.3.1 [one guitar]
D|----------------------------------------------------------------|
A|----------------------------------6p5---------------------------|
F|--------------------------------5-----7p5-----------------------|
C|---------------3p0--------0h5h7------------7p5------------------|
G|-0~---5~---3h5-----3h5-0~---------------------------------------|
C|-0~-0----0-------------0~---------------------------------------|
PM    *    *

00:20 intro pt.3.2 [one guitar]
D|----------------------------------------------------------------|
A|-----6-----------------------6----------------------------------|
F|-5/7---7b~-7-----5-------5/7---7b~-7-----5----------------------|
C|-------------5h7---5p3p0-------------5h7---5p3p0----------------|
G|----------------------------------------------------------------|
C|----------------------------------------------------------------|

00:24 intro 3.3 [two guitars]
[[guitar one]]
D|----------------------------------------------------------------|
A|-----6-----------------------6----------------------------------|
F|-5/7---7b~-7-----5-------5/7---7b~-7----------------------------|
C|-------------5h7---5p3p0-------------x-1~~----------------------|
G|-------------------------------------x-1~~----------------------|
C|-------------------------------------x-1~~----------------------|
[[guitar two]]
D|-----5----------------------5----------3~~----------------------|
A|-5/6---6b~-6-----6------5/6---6b~-6----4~~----------------------|
F|-------------5h7--7p5------------------3~~----------------------|
C|----------------------7--------------x-1~~----------------------|
G|-------------------------------------x-1~~----------------------|
C|-------------------------------------x-1~~----------------------|

// the verse may not be 100% accurate, as it sounds like more than two guitars are being 
Here's what I could make out:

00:29 verse 1.1 [two guitars]
[[guitar one]]
D|----------------------------------------------------------------|
A|----------------------------------------------------------------|
F|-10-----10-----9-----9-----9-----9-----7-----7------------------|
C|----8-8----8-8---8-8---8-8---8-8---8-8---8-8---0-0--------------|
G|----------------------------------------------------------------|
C|----------------------------------------------------------------|
PM    * *    * *   * *   * *   * *   * *   * *   * *
[[guitar two]]
D|----------------------------------------------------------------|
A|-10-----10-----8-----8-----8-----8-----6-----6------------------|
F|----------------------------------------------------------------|
C|----8-8----8-8---8-8---8-8---8-8---8-8---8-8---0-0--------------|
G|----------------------------------------------------------------|
C|----------------------------------------------------------------|
PM    * *    * *   * *   * *   * *   * *   * *   * *

00:33 verse 1.2 [two guitars]
[[guitar one]]
D|----------------------------------------------------------------|
A|----------------------------------------------------------------|
F|-10-----10-----9-----9-----9-----9-----7-----7------------------|
C|----0-0----0-0---0-0---0-0---0-0---0-0---0-0--------------------|
G|-----------------------------------------------10-10------------|
C|----------------------------------------------------------------|
PM    * *    * *   * *   * *   * *   * *   * *   *  *
[[guitar two]]
D|----------------------------------------------------------------|
A|-10-----10-----8-----8-----8-----8-----6-----6------------------|
F|----------------------------------------------------------------|
C|----0-0----0-0---0-0---0-0---0-0---0-0---0-0--------------------|
G|-----------------------------------------------10-10------------|
C|----------------------------------------------------------------|
PM    * *    * *   * *   * *   * *   * *   * *   *  *

00:37 verse 1.3 [two guitars]
[[guitar one]]
D|----------------------------------------------------------------|
A|----------------------------------------------------------------|
F|-10-------10-------9-------9-----9-----9-----7-----7------------|
C|-----------------------------------------------------5-5--------|
G|----10-10----10-10---10-10---8-8---8-8---8-8---8-8--------------|
C|----------------------------------------------------------------|
PM    *  *     *  *    *  *    * *   * *   * *   * *   * *
[[guitar two]]
D|----------------------------------------------------------------|
A|-10-------10-------8-------8-----8-----8-----6-----6------------|
F|----------------------------------------------------------------|
C|-----------------------------------------------------5-5--------|
G|----10-10----10-10---10-10---8-8---8-8---8-8---8-8--------------|
C|----------------------------------------------------------------|
PM    *  *     *  *    *  *    * *   * *   * *   * *   * *

00:41 verse 1.4 [two guitars]
[[guitar one]]
D|----------------------------------------------------------------|
A|----------------------------------------------------------------|
F|-7-----7-----6-----6-----7~~~~/9~~~~/10~~~~~/12~\---------------|
C|---5-5---5-5---5-5---5-5---7~~/--9~~/---10~~/12~\---------------|
G|-----------------------------5/----7/------8/10~\---------------|
C|----------------------------------------------------------------|
PM   * *   * *   * *   * *
[[guitar two]]
D|----------------------------------------------------------------|
A|-6-----6-----5-----5--------------------------------------------|
F|-------------------------7-7-7-9-9-9-10-10-10-12\---------------|
C|---5-5---5-5---5-5---5-5-7-7-7-9-9-9-10-10-10-12\---------------|
G|-------------------------5-5-5-7-7-7--8--8--8-10\---------------|
C|----------------------------------------------------------------|
PM   * *   * *   * *   * *

00:46 chorus 1.1 [two guitars]
[[guitar one]]
D|-10-10-------------10~------10-10-------------------------10-10-|
A|-------11-11----------------------11-11-------11-11-------------|
F|-------------12-12----------------------12-12-------12-12-------|
C|----------------------------------------------------------------|
G|----------------------------------------------------------------|
C|----------------------------------------------------------------|
[[guitar two]]
D|-------------10-10----------------------10-10-------------------|
A|-11-11-------------11~------11-11-------------11-11-------11-11-|
F|-------12-12----------------------12-12-------------12-12-------|
C|----------------------------------------------------------------|
G|----------------------------------------------------------------|
C|----------------------------------------------------------------|

00:50 chorus 1.2 [two guitars]
[[guitar one]]
D|-8-8-------------8~---------8-8-------------------------8-8-----|
A|-----10-10----------------------10-10-------10-10---------------|
F|-----------10-10----------------------10-10-------10-10---------|
C|----------------------------------------------------------------|
G|----------------------------------------------------------------|
C|----------------------------------------------------------------|
[[guitar two]]
D|-------------8-8------------------------8-8---------------------|
A|-10-10-----------10~--------10-10-----------10-10-------10-10---|
F|-------10-10----------------------10-10-----------10-10---------|
C|----------------------------------------------------------------|
G|----------------------------------------------------------------|
C|----------------------------------------------------------------|

00:54 chorus 2.1 [one guitar]
D|-6p5--------------------6p5-------------------------------------|
A|-----6-----------6----------6-----------6-----------------------|
F|-------7b~-7-5h7--------------7b~-7-5h7-------------------------|
C|-------------------5\3-0-------------------5\3-0----------------|
G|----------------------------------------------------------------|
C|----------------------------------------------------------------|

00:58 chorus 2.2 [one guitar]
D|-6p5------------------------------------------------------------|
A|-----6-----------6----------------------------------------------|
F|-------7b~-7-5h7------------------------------------------------|
C|-------------------5\3-0-3~-------------------------------------|
G|----------------------------------------------------------------|
C|----------------------------------------------------------------|

// the verse may not be 100% accurate, as it sounds like more than two guitars are being 
Here's what I could make out:
// note: the second verse is the same as the first for the first half, but there is an 
4 1/2 bars - jump to 1.4

01:02 verse 1.1 [two guitars]
[[guitar one]]
D|----------------------------------------------------------------|
A|----------------------------------------------------------------|
F|-10-----10-----9-----9-----9-----9-----7-----7------------------|
C|----8-8----8-8---8-8---8-8---8-8---8-8---8-8---0-0--------------|
G|----------------------------------------------------------------|
C|----------------------------------------------------------------|
PM    * *    * *   * *   * *   * *   * *   * *   * *
[[guitar two]]
D|----------------------------------------------------------------|
A|-10-----10-----8-----8-----8-----8-----6-----6------------------|
F|----------------------------------------------------------------|
C|----8-8----8-8---8-8---8-8---8-8---8-8---8-8---0-0--------------|
G|----------------------------------------------------------------|
C|----------------------------------------------------------------|
PM    * *    * *   * *   * *   * *   * *   * *   * *

01:06 verse 1.2 [two guitars]
[[guitar one]]
D|----------------------------------------------------------------|
A|----------------------------------------------------------------|
F|-10-----10-----9-----9-----9-----9-----7-----7------------------|
C|----0-0----0-0---0-0---0-0---0-0---0-0---0-0--------------------|
G|-----------------------------------------------10-10------------|
C|----------------------------------------------------------------|
PM    * *    * *   * *   * *   * *   * *   * *   *  *
[[guitar two]]
D|----------------------------------------------------------------|
A|-10-----10-----8-----8-----8-----8-----6-----6------------------|
F|----------------------------------------------------------------|
C|----0-0----0-0---0-0---0-0---0-0---0-0---0-0--------------------|
G|-----------------------------------------------10-10------------|
C|----------------------------------------------------------------|
PM    * *    * *   * *   * *   * *   * *   * *   *  *

01:10 verse 1.3 [two guitars]
[[guitar one]]
D|----------------------------------------------------------------|
A|----------------------------------------------------------------|
F|-10-------10-------9-------9-----9-----9-----7-----7------------|
C|-----------------------------------------------------5-5--------|
G|----10-10----10-10---10-10---8-8---8-8---8-8---8-8--------------|
C|----------------------------------------------------------------|
PM    *  *     *  *    *  *    * *   * *   * *   * *   * *
[[guitar two]]
D|----------------------------------------------------------------|
A|-10-------10-------8-------8-----8-----8-----6-----6------------|
F|----------------------------------------------------------------|
C|-----------------------------------------------------5-5--------|
G|----10-10----10-10---10-10---8-8---8-8---8-8---8-8--------------|
C|----------------------------------------------------------------|
PM    *  *     *  *    *  *    * *   * *   * *   * *   * *

01:14 verse 1.4 [two guitars]
[[guitar one]]
D|----------------------------------------------------------------|
A|----------------------------------------------------------------|
F|-7-----7-----6-----6-----7~~~~/9~~~~\6~~~~/12~~~~~~~------------|
C|---5-5---5-5---5-5---5-5---7~~/--9~~\--6~~/---12~~~~------------|
G|-----------------------------5/----7\----4/------10~------------|
C|----------------------------------------------------------------|
PM   * *   * *   * *   * *
[[guitar two]]
D|----------------------------------------------------------------|
A|-6-----6-----5-----5--------------------------------------------|
F|-------------------------7-7-7-9-9-9-6-6-6-12-12-12-------------|
C|---5-5---5-5---5-5---5-5-7-7-7-9-9-9-6-6-6-12-12-12-------------|
G|-------------------------5-5-5-7-7-7-4-4-4-10-10-10-------------|
C|----------------------------------------------------------------|
PM   * *   * *   * *   * *

01:18 verse 2.1 [two guitars]
[[guitar one]]
D|----------------------------------------------------------------|
A|-11-----11-----10-----10-----8-----8----------------------------|
F|-----------------------------------------10-----10--------------|
C|----8-8----8-8----8-8----8-8---8-8---8-8----8-8----10-10--------|
G|----------------------------------------------------------------|
C|----------------------------------------------------------------|
PM    * *    * *    * *    * *   * *   * *    * *    *  *
[[guitar two]]
D|-10-----10-----8-----8-----8-----8------------------------------|
A|---------------------------------------10-----10----------------|
F|----------------------------------------------------------------|
C|----8-8----8-8---8-8---8-8---8-8---8-8----8-8----10-10----------|
G|----------------------------------------------------------------|
C|----------------------------------------------------------------|
PM    * *    * *   * *   * *   * *   * *    * *    *  *

01:22 verse 2.2 [two guitars]
[[guitar one]]
D|-----------------------------------------------------------------------|
A|-11-------11-------10-------10-------8------8--------------------------|
F|-----------------------------------------------------10-------10-------|
C|----10-10----10-10----10-10----10-10---10-10---10-10----10-10----------|
G|-----------------------------------------------------------------10-10-|
C|-----------------------------------------------------------------------|
PM    *  *     *  *     *  *     *  *    *  *    *  *     *  *     *  *
[[guitar two]]
D|-10-------10-------8-------8-------8-------8-------------------------|
A|---------------------------------------------------10-------10-------|
F|---------------------------------------------------------------------|
C|----10-10----10-10---10-10---10-10---10-10---10-10----10-10----------|
G|---------------------------------------------------------------10-10-|
C|---------------------------------------------------------------------|
PM    *  *     *  *    *  *    *  *    *  *    *  *     *  *     *  *

01:26 verse 2.3 [two guitars]
[[guitar one]]
D|----------------------------------------------------------------|
A|----------------------------------------------------------------|
F|-10-------10-------9-------9-----9-----9-----7-----7------------|
C|-----------------------------------------------------5-5--------|
G|----10-10----10-10---10-10---8-8---8-8---8-8---8-8--------------|
C|----------------------------------------------------------------|
PM    *  *     *  *    *  *    * *   * *   * *   * *   * *
[[guitar two]]
D|----------------------------------------------------------------|
A|-10-------10-------8-------8-----8-----8-----6-----6------------|
F|----------------------------------------------------------------|
C|-----------------------------------------------------5-5--------|
G|----10-10----10-10---10-10---8-8---8-8---8-8---8-8--------------|
C|----------------------------------------------------------------|
PM    *  *     *  *    *  *    * *   * *   * *   * *   * *

01:29 verse 2.4 [two guitars]
[[guitar one]]
D|----------------------------------------------------------------|
A|----------------------------------------------------------------|
F|-7-----7-----6-----6-----7~~~~/9~~~~/10~~~~~/12~----------------|
C|---5-5---5-5---5-5---5-5---7~~/--9~~/---10~~/12~----------------|
G|-----------------------------5/----7/------8/10~----------------|
C|----------------------------------------------------------------|
PM   * *   * *   * *   * *
[[guitar two]]
D|----------------------------------------------------------------|
A|-6-----6-----5-----5--------------------------------------------|
F|-------------------------7-7-7-9-9-9-10-10-10-12----------------|
C|---5-5---5-5---5-5---5-5-7-7-7-9-9-9-10-10-10-12----------------|
G|-------------------------5-5-5-7-7-7--8--8--8-10----------------|
C|----------------------------------------------------------------|
PM   * *   * *   * *   * *

01:33 chorus 1.1 [two guitars]
[[guitar one]]
D|-10-10-------------10~------10-10-------------------------10-10-|
A|-------11-11----------------------11-11-------11-11-------------|
F|-------------12-12----------------------12-12-------12-12-------|
C|----------------------------------------------------------------|
G|----------------------------------------------------------------|
C|----------------------------------------------------------------|
[[guitar two]]
D|-------------10-10----------------------10-10-------------------|
A|-11-11-------------11~------11-11-------------11-11-------11-11-|
F|-------12-12----------------------12-12-------------12-12-------|
C|----------------------------------------------------------------|
G|----------------------------------------------------------------|
C|----------------------------------------------------------------|

01:37 chorus 1.2 [two guitars]
[[guitar one]]
D|-8-8-------------8~---------8-8-------------------------8-8-----|
A|-----10-10----------------------10-10-------10-10---------------|
F|-----------10-10----------------------10-10-------10-10---------|
C|----------------------------------------------------------------|
G|----------------------------------------------------------------|
C|----------------------------------------------------------------|
[[guitar two]]
D|-------------8-8------------------------8-8---------------------|
A|-10-10-----------10~--------10-10-----------10-10-------10-10---|
F|-------10-10----------------------10-10-----------10-10---------|
C|----------------------------------------------------------------|
G|----------------------------------------------------------------|
C|----------------------------------------------------------------|

01:41 chorus 2.1 [one guitar]
D|-6p5--------------------6p5-------------------------------------|
A|-----6-----------6----------6-----------6-----------------------|
F|-------7b~-7-5h7--------------7b~-7-5h7-------------------------|
C|-------------------5\3-0-------------------5\3-0----------------|
G|----------------------------------------------------------------|
C|----------------------------------------------------------------|

01:45 chorus 2.2 [one guitar]
D|-6p5------------------------------------------------------------|
A|-----6-----------6----------------------------------------------|
F|-------7b~-7-5h7------------------------------------------------|
C|-------------------5\3-0-3~-------------------------------------|
G|----------------------------------------------------------------|
C|----------------------------------------------------------------|

01:49 chorus 2.3 [two guitars]
[[guitar one]]
D|-10-10-------------10~------8-8-------------8~------------------|
A|-------11-11--------------------10-10---------------------------|
F|-------------12-12--------------------10-10---------------------|
C|----------------------------------------------------------------|
G|----------------------------------------------------------------|
C|----------------------------------------------------------------|
[[guitar two]]
D|-------------10-10----------------------8-8---------------------|
A|-11-11-------------11~------10-10-----------10~-----------------|
F|-------12-12----------------------10-10-------------------------|
C|----------------------------------------------------------------|
G|----------------------------------------------------------------|
C|----------------------------------------------------------------|

01:53 bridge 1.1 [one guitar]
[[tempo increase]]
D|-----------------5---------5------------------------------------|
A|-6p5-------5-6-----------------8--------------------------------|
F|-----7-5-7-----7---7-7-7-7---7---7------------------------------|
C|----------------------------------------------------------------|
G|----------------------------------------------------------------|
C|----------------------------------------------------------------|
PM                   * * * *   *   *

01:56 bridge 1.2 [one guitar]
D|-----------------8-------8--------------------------------------|
A|-6p5-------5-6-----6-6-6---5-5-5--------------------------------|
F|-----7-5-7-----7------------------------------------------------|
C|----------------------------------------------------------------|
G|----------------------------------------------------------------|
C|----------------------------------------------------------------|
PM                   * * *   * * *

01:58 bridge 1.3 [one guitar]
D|-----------------5---------5------------------------------------|
A|-6p5-------5-6-----------------8--------------------------------|
F|-----7-5-7-----7---7-7-7-7---7---7------------------------------|
C|----------------------------------------------------------------|
G|----------------------------------------------------------------|
C|----------------------------------------------------------------|
PM                   * * * *   *   *

02:01 bridge 1.4 [two guitars]
[[guitar one]]
D|-----------------------------5~---------------------------------|
A|-6p5-------5-6---5/6\5-----6~--6~-------------------------------|
F|-----7-5-7-------------5/7~-------------------------------------|
C|----------------------------------------------------------------|
G|----------------------------------------------------------------|
C|----------------------------------------------------------------|
[[guitar two]]
D|------------------------------------8~--------------------------|
A|-10p8---------8-10---8/10\8------10~--10~-----------------------|
F|------10-9-10---------------9/10~-------------------------------|
C|----------------------------------------------------------------|
G|----------------------------------------------------------------|
C|----------------------------------------------------------------|

02:04 bridge 2.1 [one guitar]
D|-----------------5---------5------------------------------------|
A|-6p5-------5-6-----------------8--------------------------------|
F|-----7-5-7-----7---7-7-7-7---7---7------------------------------|
C|----------------------------------------------------------------|
G|----------------------------------------------------------------|
C|----------------------------------------------------------------|
PM                   * * * *   *   *

02:06 bridge 2.2 [one guitar]
D|-----------------8-------8--------------------------------------|
A|-6p5-------5-6-----6-6-6---5-5-5--------------------------------|
F|-----7-5-7-----7------------------------------------------------|
C|----------------------------------------------------------------|
G|----------------------------------------------------------------|
C|----------------------------------------------------------------|
PM                   * * *   * * *

02:09 bridge 2.3 [one guitar]
D|-----------------5---------5------------------------------------|
A|-6p5-------5-6-----------------8--------------------------------|
F|-----7-5-7-----7---7-7-7-7---7---7------------------------------|
C|----------------------------------------------------------------|
G|----------------------------------------------------------------|
C|----------------------------------------------------------------|
PM                   * * * *   *   *

02:12 bridge 2.4 [two guitars]
[[guitar one]]
D|-----------------------------5~---------------------------------|
A|-6p5-------5-6---5/6\5-----6~--6~-------------------------------|
F|-----7-5-7-------------5/7~-------------------------------------|
C|----------------------------------------------------------------|
G|----------------------------------------------------------------|
C|----------------------------------------------------------------|
[[guitar two]]
D|------------------------------------8~--------------------------|
A|-10p8---------8-10---8/10\8------10~--10~-----------------------|
F|------10-9-10---------------9/10~-------------------------------|
C|----------------------------------------------------------------|
G|----------------------------------------------------------------|
C|----------------------------------------------------------------|

02:14 bridge 3.1 [two guitars]
[[guitar one]]
D|-----------------5---------5------------------------------------|
A|-6p5-------5-6-----------------8--------------------------------|
F|-----7-5-7-----7---7-7-7-7---7---7------------------------------|
C|----------------------------------------------------------------|
G|----------------------------------------------------------------|
C|----------------------------------------------------------------|
PM                   * * * *   *   *
[[guitar two]]
D|----------------------8-------------8---------------------------|
A|-10p8---------8-10-----------------------11---------------------|
F|------10-9-10------10---10-10-10-10---10----10------------------|
C|----------------------------------------------------------------|
G|----------------------------------------------------------------|
C|----------------------------------------------------------------|
PM                        *  *  *  *    *     *

02:17 bridge 3.2 [two guitars]
[[guitar one]]
D|-----------------8-------8--------------------------------------|
A|-6p5-------5-6-----6-6-6---5-5-5--------------------------------|
F|-----7-5-7-----7------------------------------------------------|
C|----------------------------------------------------------------|
G|----------------------------------------------------------------|
C|----------------------------------------------------------------|
PM                   * * *   * * *
[[guitar two]]
D|----------------------12----------12----------------------------|
A|-10p8---------8-10-------10-10-10----8-8-8----------------------|
F|------10-9-10------10-------------------------------------------|
C|----------------------------------------------------------------|
G|----------------------------------------------------------------|
C|----------------------------------------------------------------|
PM                         *  *  *     * * *

02:19 bridge 3.3 [two guitars]
[[guitar one]]
D|-----------------5---------5------------------------------------|
A|-6p5-------5-6-----------------8--------------------------------|
F|-----7-5-7-----7---7-7-7-7---7----------------------------------|
C|----------------------------------------------------------------|
G|----------------------------------------------------------------|
C|----------------------------------------------------------------|
PM                   * * * *   *
[[guitar two]]
D|----------------------8-------------8---------------------------|
A|-10p8---------8-10-----------------------11---------------------|
F|------10-9-10------10---10-10-10-10---10------------------------|
C|----------------------------------------------------------------|
G|----------------------------------------------------------------|
C|----------------------------------------------------------------|
PM                        *  *  *  *    *

02:22 bridge 3.4 [one guitar]
D|-6~--8~--5~--6~-------------------------------------------------|
A|-x---x---6~--8~-------------------------------------------------|
F|-7~--7~--7~--7~-------------------------------------------------|
C|-5~--5~--5~--5~-------------------------------------------------|
G|-5~--5~--5~--5~-------------------------------------------------|
C|-5~--5~--5~--5~-------------------------------------------------|

02:26 chorus 1.1 [two guitars]
[[guitar one]]
D|-10-10-------------10~------10-10-------------------------10-10-|
A|-------11-11----------------------11-11-------11-11-------------|
F|-------------12-12----------------------12-12-------12-12-------|
C|----------------------------------------------------------------|
G|----------------------------------------------------------------|
C|----------------------------------------------------------------|
[[guitar two]]
D|-------------10-10----------------------10-10-------------------|
A|-11-11-------------11~------11-11-------------11-11-------11-11-|
F|-------12-12----------------------12-12-------------12-12-------|
C|----------------------------------------------------------------|
G|----------------------------------------------------------------|
C|----------------------------------------------------------------|

02:30 chorus 1.2 [two guitars]
[[guitar one]]
D|-8-8-------------8~---------8-8-------------------------8-8-----|
A|-----10-10----------------------10-10-------10-10---------------|
F|-----------10-10----------------------10-10-------10-10---------|
C|----------------------------------------------------------------|
G|----------------------------------------------------------------|
C|----------------------------------------------------------------|
[[guitar two]]
D|-------------8-8------------------------8-8---------------------|
A|-10-10-----------10~--------10-10-----------10-10-------10-10---|
F|-------10-10----------------------10-10-----------10-10---------|
C|----------------------------------------------------------------|
G|----------------------------------------------------------------|
C|----------------------------------------------------------------|

02:34 chorus 2.1 [one guitar]
D|-6p5--------------------6p5-------------------------------------|
A|-----6-----------6----------6-----------6-----------------------|
F|-------7b~-7-5h7--------------7b~-7-5h7-------------------------|
C|-------------------5\3-0-------------------5\3-0----------------|
G|----------------------------------------------------------------|
C|----------------------------------------------------------------|

02:38 chorus 2.2 [one guitar]
D|-6p5------------------------------------------------------------|
A|-----6-----------6----------------------------------------------|
F|-------7b~-7-5h7------------------------------------------------|
C|-------------------5\3-0-3~-------------------------------------|
G|----------------------------------------------------------------|
C|----------------------------------------------------------------|

02:42 chorus 3.1 [two guitars]
[[guitar one]]
D|-10-10-------------10~------10-10-------------------------10-10-|
A|-------11-11----------------------11-11-------11-11-------------|
F|-------------12-12----------------------12-12-------12-12-------|
C|----------------------------------------------------------------|
G|----------------------------------------------------------------|
C|----------------------------------------------------------------|
[[guitar two]]
D|-------------10-10----------------------10-10-------------------|
A|-11-11-------------11~------11-11-------------11-11-------11-11-|
F|-------12-12----------------------12-12-------------12-12-------|
C|----------------------------------------------------------------|
G|----------------------------------------------------------------|
C|----------------------------------------------------------------|

02:46 chorus 3.2 [two guitars]
[[guitar one]]
D|-8-8-------------8~---------8-8-------------------------8-8-----|
A|-----10-10----------------------10-10-------10-10---------------|
F|-----------10-10----------------------10-10-------10-10---------|
C|----------------------------------------------------------------|
G|----------------------------------------------------------------|
C|----------------------------------------------------------------|
[[guitar two]]
D|-------------8-8------------------------8-8---------------------|
A|-10-10-----------10~--------10-10-----------10-10-------10-10---|
F|-------10-10----------------------10-10-----------10-10---------|
C|----------------------------------------------------------------|
G|----------------------------------------------------------------|
C|----------------------------------------------------------------|

02:50 chorus 4.1 [one guitar]
D|-6p5--------------------6p5-------------------------------------|
A|-----6-----------6----------6-----------6-----------------------|
F|-------7b~-7-5h7--------------7b~-7-5h7-------------------------|
C|-------------------5\3-0-------------------5\3-0----------------|
G|----------------------------------------------------------------|
C|----------------------------------------------------------------|

02:54 chorus 4.2 [one guitar]
D|-6p5------------------------------------------------------------|
A|-----6-----------6----------------------------------------------|
F|-------7b~-7-5h7------------------------------------------------|
C|-------------------5\3-0-3~-------------------------------------|
G|----------------------------------------------------------------|
C|----------------------------------------------------------------|

02:58 outro 1.1 [one guitar]
D|-6p5--------------------6p5-------------------------------------|
A|-----6-----------6----------6-----------6-----------------------|
F|-------7b~-7-5h7--------------7b~-7-5h7-------------------------|
C|-------------------5\3-0-------------------5\3-0----------------|
G|----------------------------------------------------------------|
C|----------------------------------------------------------------|

03:02 outro 1.2 [one guitar]
D|-6p5--------------------6p5-------------------------------------|
A|-----6-----------6----------6-----------6-----------------------|
F|-------7b~-7-5h7--------------7b~-7-5h7-------------------------|
C|-------------------5\3-0-------------------5\3-0----------------|
G|----------------------------------------------------------------|
C|----------------------------------------------------------------|

03:06 outro 1.3 [one guitar]
D|-6p5------------------------------------------------------------|
A|-----6-----------6----------------------------------------------|
F|-------7b~-7-5h7------------------------------------------------|
C|-------------------5\3-0-3~-------0~----------------------------|
G|-----------------------------3~---0~----------------------------|
C|----------------------------------0~----------------------------|

// There you go! Thanks and please rate my tab accordingly! =]





Comments


Popular Scary Kids Scaring Kids tabs & chords
The Only Medicine Bass Tabs
Watch Me Bleed 2 Chords
Blood Runs Forever 3 Tabs
Degenerates Intro Tabs
Drowning You In Fear Tabs
Empty Glasses Tabs
The Only Medicine 4 Tabs
What's Up Now Tabs
Whats Up Now Intro 1 Tabs
Watch Me Bleed 2 Ukulele


Song lyrics



↑ Back to top | Tablatures and chords are parodies/interpretations of the original songs. You may use it for private study, scholarship, research or language learning purposes only
© 2014 AZChords.com Contact us | Privacy policy | DMCA | Add/correct tabs | Request tabs | Top 50 tabs