>
 >
Blood Runs Forever 3

Blood Runs Forever 3 Guitar Tabs

Scary Kids Scaring Kids - Blood Runs Forever 3 chords, tabs, tablatures, lyrics

Guitar lessons | Add/correct | Request | Top 50 tabs Artists:  A B C D E F G H I J K L M N O P Q R S T U V W X Y Z 0-9

Blood Runs Forever 3 Guitar Tabs – Scary Kids Scaring Kids

CD, Sheet music, Poster

Do you like Blood Runs Forever 3? Share with your friends now
TabsTabs v2Tabs v3
-----------------------------------------------------------------------------
           Blood Runs Forever (intro) - Scary Kids Scaring Kids
-----------------------------------------------------------------------------

Tuning:Standard

e|-------------------------------------------------------------|
B|------------------------------------------9p7------7p5-------|
G|-------------------------5p7----------7h9------5h7-----7p5---|
D|---------5p3----------5------5p7-----------------------------|
A|------3h5---3s5---5-7------------5p7-------------------------|
E|0-0h5-----------0--------------------------------------------|


e|-------------------------------------------------------------|
B|-------------------------------------------------------------|
G|-------------------------5p7---------------------------------|
D|---------5p3----------5------5p7-----------------------------|
A|------3h5---3s5---5-7------------5p7-------------------------|
E|0-0h5-----------0--------------------------------------------|

After this, the guitarist does a cascading series of notes upwards, which I dont care to 
out. Somebody can figure it out and make a 'ver. 2' If they want.

e|-------------------------------------------------------------|
B|------------------------------------------9p7------7p5-------|
G|-------------------------5p7----------7h9------5h7-----7p5---|
D|---------5p3----------5------5p7-----------------------------|
A|------3h5---3s5---5-7------------5p7-------------------------|
E|0-0h5-----------0--------------------------------------------|


e|-------------------------------------------------------------|
B|------------------------------------------9p7------7p5-------|
G|-------------------------5p7----------7h9------5h7-----7p5---|
D|---------5p3----------5------5p7-----------------------------|
A|------3h5---3s5---5-7------------5p7-------------------------|
E|0-0h5-----------0--------------------------------------------|

e|------------------------------------------------|
B|--9p7--------7p5-------------9p7-----7p5--------|
G|7h9------5h7-----7p5----7h9------5h7-----7p5----|
D|------------------------------------------------|
A|------------------------------------------------|
E|------------------------------------------------|


e|------------------------------------------|
B|-----11p9-------9p7---------- 11p9--------|
G|9h11--------7h9-----9p7--9h11-------------|
D|------------------------------------5~----|
A|------------------------------------5~----|
E|------------------------------------3~----|





Comments


Popular Scary Kids Scaring Kids tabs & chords
Goes Without Saying Chords
Watch Me Bleed 1 Chords
Empty Glasses 1 Tabs
Faces 1 Tabs
Goes Without Saying Tabs
Sink And Die Intro Tabs
Snake Devil Tabs
The Only Medicine 2 Tabs
Whats Up Now Intro 1 Tabs
World As We Know It Intro Tabs


Song lyrics



↑ Back to top | Tablatures and chords are parodies/interpretations of the original songs. You may use it for private study, scholarship, research or language learning purposes only
© 2014 AZChords.com Contact us | Privacy policy | DMCA | Add/correct tabs | Request tabs | Top 50 tabs