>
 >
New Tattoo Intro

New Tattoo Intro Guitar Tabs

Saving Abel - New Tattoo Intro chords, tabs, tablatures, lyrics

Guitar lessons | Add/correct | Request | Top 50 tabs Artists:  A B C D E F G H I J K L M N O P Q R S T U V W X Y Z 0-9

New Tattoo Intro Guitar Tabs – Saving Abel

CD, Sheet music, Poster

Do you like New Tattoo Intro? Share with your friends now
Tabs
This is just the intro part to New Tattoo from Saving Abel's new cd.  The Intro is the
as the chorus in some parts and from just this you can have a little fun.  The intro has
guitar parts, I believe, but they play the same thing so I listed two here just in 
 The rest of the tab should be up by the end of the month hopefully.  Hope you enjoy this.


Gtr I   (C G C F A D) - Rhythm I
Gtr II  (C G C F A D) - Rhythm II
Gtr III (C G C F A D) - Lead I

  Q=80
 1/4        4/4
 Drum part              ~           ~             ~   ~~~~
  E.   S S   E S S S S E E S S S S E   E S S S S E E E E E
|----------|-------------------------|----------------------|
|----------|-------------------------|----------------------|
|----------|-------------------------|----------------------|
|----------|-------------------------|----------------------|
|----------|-0-0-3p0-3h5-0-0-3p0-3h5-|-0-0-3p0-3h5-3--------|
|------x-x-|-0-0-3p0-3h5-0-0-3p0-3h5-|-0-0-3p0-3h5---3-4-5--|
|
|      Gtr II
|                      ~           ~             ~   ~~~~
| E.   S S   E S S S S E E S S S S E   E S S S S E E E E E
|----------|-------------------------|----------------------|
|----------|-------------------------|----------------------|
|----------|-------------------------|----------------------|
|----------|-------------------------|----------------------|
|----------|-0-0-3p0-3h5-0-0-3p0-3h5-|-0-0-3p0-3h5-3--------|
|------x-x-|-0-0-3p0-3h5-0-0-3p0-3h5-|-0-0-3p0-3h5---3-4-5--|
|
|      Gtr III
| Q          W                         W
|----------|-------------------------|----------------------|
|----------|-------------------------|----------------------|
|----------|-------------------------|----------------------|
|----------|-------------------------|----------------------|
|----------|-------------------------|----------------------|
|----------|-------------------------|----------------------|


                   ~~                 ~~
  E  S  S    S  S  E E  S  S    S  S  E
|---------------------------------------|
|---------------------------------------|
|---------------------------------------|
|---------------------------------------|
|-0--0--3p===0--3h=5-0--0--3p===0--3h=5-|
|-0--0--3p===0--3h=5-0--0--3p===0--3h=5-|
|
|                  ~~                 ~~
| E  S  S    S  S  E E  S  S    S  S  E
|---------------------------------------|
|---------------------------------------|
|---------------------------------------|
|---------------------------------------|
|-0--0--3p===0--3h=5-0--0--3p===0--3h=5-|
|-0--0--3p===0--3h=5-0--0--3p===0--3h=5-|
|
|                  ~~                 ~~
| E.    E       S  E E.    E       S  E
|---------------------------------------|
|---------------------------------------|
|------12b14r==10---------12b14r==10-12-|
|-----------------12--------------------|
|---------------------------------------|
|---------------------------------------|


                   ~~    ~~~~~
  E  S  S    S  S  E  E  E  E  E
|------------------------------------------|
|------------------------------------------|
|------------------------------------------|
|------------------------------------------|
|-0--0--3p===0--3h=5--3--------------------|
|-0--0--3p===0--3h=5-----3--4--5-----------|
|
|                  ~~    ~~~~~
| E  S  S    S  S  E  E  E  E  E
|------------------------------------------|
|------------------------------------------|
|------------------------------------------|
|------------------------------------------|
|-0--0--3p===0--3h=5--3--------------------|
|-0--0--3p===0--3h=5-----3--4--5-----------|
|
|                  ~~~~~       ~~~~~~~~~~~~
| E.    E       S  E  E  E  E  S       +S
|------------------------------------------|
|--------------------13--------------------|
|------12b14r==10-------10-11-12b12.5-(12)-|
|-----------------12-----------------------|
|------------------------------------------|
|------------------------------------------|

Duration Legend
---------------
W - whole; H - half; Q - quarter; E - 8th; S - 16th; T - 32nd; X - 64th; a - acciaccatura
+ - note tied to previous; . - note dotted; .. - note double dotted
Uncapitalized letters represent notes that are staccato (1/2 duration)
Irregular groupings are notated above the duration line
Duration letters will always appear directly above the note/fret number it represents the
duration for.  Duration letters with no fret number below them represent rests.  Multi-
bar rests are notated in the form Wxn, where n is the number of bars to rest for.  Low
melody durations appear below the staff

Tablature Legend
----------------
 h   - hammer-on
 p   - pull-off
 b   - bend
 pb  - pre-bend
 r   - bend release (if no number after the r, then release immediately)
 /\  - slide into or out of (from/to "nowhere")
 s   - legato slide
 S   - shift slide
  - natural harmonic
[n]  - artificial harmonic
n(n) - tapped harmonic
 ~   - vibrato
 tr  - trill
 T   - tap
 TP  - trem. picking
 PM  - palm muting
\n/  - tremolo bar dip; n = amount to dip
 \n  - tremolo bar down
 n/  - tremolo bar up
/n\  - tremolo bar inverted dip
 =   - hold bend; also acts as connecting device for hammers/pulls
 <>  - volume swell (louder/softer)
 x   - on rhythm slash represents muted slash
 o   - on rhythm slash represents single note slash

Misc Legend
-----------
 |  - bar
||  - double bar
||o - repeat start
o|| - repeat end
*|  - double bar (ending)
 :  - bar (freetime)
 $  - Segno
 &  - Coda
Tempo markers -  = BPM(8/16=s8/s16), where s8 = swing 8ths, s16 = swing 16ths


***************************************************************************************
***************************************************************************************





Comments


Popular Saving Abel tabs & chords
18 Days 1 Chords
Addicted Chords
Beautiful Day Chords
Beautiful Day 1 Chords
Sailed Away 1 Chords
18 Days Tabs
Beautiful You Intro Tabs
Drowning Face Down Tabs
Drowning Face Down 3 Tabs
Running From You Tabs


Song lyrics



↑ Back to top | Tablatures and chords are parodies/interpretations of the original songs. You may use it for private study, scholarship, research or language learning purposes only
© 2014 AZChords.com Contact us | Privacy policy | DMCA | Add/correct tabs | Request tabs | Top 50 tabs