>
 >
New Tattoo

New Tattoo Guitar Tabs

Saving Abel - New Tattoo chords, tabs, tablatures, lyrics

Guitar lessons | Add/correct | Request | Top 50 tabs Artists:  A B C D E F G H I J K L M N O P Q R S T U V W X Y Z 0-9

New Tattoo Guitar Tabs – Saving Abel

CD, Sheet music, Poster

Do you like New Tattoo? Share with your friends now
Tabs

Tuning: Drop C Tuning (CGCFAD)

Intro: (0:00-0:13)
D|---------------------------------------------------|
A|---------------------------------------------------|
F|-------------------------------------------5-------|
C|-0-0-3-0-3h5---0-0-3-0-3h5---0-0-3-0-3h5---5-2-3-5-|
G|-0-0-3-0-3h5---0-0-3-0-3h5---0-0-3-0-3h5---3-2-3-5-|
C|-0-0-3-0-3h5---0-0-3-0-3h5---0-0-3-0-3h5-----2-3-5-| x2

Guitar 1: (0:08-0:13)
D|---------------------------------------------------|
A|----------------------------------------13---------|
F|-13b-10-------13b-10-12-----13b-10--------9-10-12\-|
C|--------12-------------------------12--------------|
G|---------------------------------------------------|
C|---------------------------------------------------|

Verse 1: (0:14-28)

  Part 1:                         Guitar 1, Lick 1 (0:18-0:19)
D|-------------------|           D|------------|
A|-------------------|           A|------------|
F|----------55555555-|           F|------------|
C|-00000000-55555555-|           C|-------5----|
G|-00000000-33333333-|           G|-0-3p0--5---|
C|-00000000----------|x3         C|-----------0|
 [____palm muted____]

  Part 2:
D|---------------------------------------------|
A|---------------------------------------------|
F|------------------------------------55555555-|
C|-9-9-9-9-9--15-15/17-17----00000000-55555555-|
G|-9-9-9-9-9--15-15/17-17----00000000-33333333-|
C|-9-9-9-9-9--15-15/17-17----00000000----------|

Guitar 1, Lick 2(0:27-0:28)
D|------------|
A|-13---------|
F|----9-10-12-|
C|----9-10-12-|
G|------------|
C|------------|

Verse 2: (0:28-0:47) Repeat Part 1 of Verse 1 then play this...
D|---------------------------------------------------------------------------|
A|---------------------------------------------------------------------------|
F|---------------------------------------------------------------------------|
C|-9-9-9-9-9--15-15/17-17----------------------------------------------------|
G|-9-9-9-9-9--15-15/17-17---------------------------------------------3------|
C|-9-9-9-9-9--15-15/17-17---0-0-3-0-3h5---0-0-3-0-3h5---0-0-3-0-3h5----2-3-5-|
         (guitar heard in background bending 12th fret of 4th string)

Verse 3:  (0:47-1:24)

D|--------------|            D|-------------------|
A|--------------|            A|-------------------|
F|--------------|            F|----------55555555-|
C|-0--12-10--10-|            C|-00000000-55555555-|
G|-0--12-10--10-|            G|-00000000-33333333-|
C|-0--12-10--10-|x4 and then C|-00000000----------|x3

D|--------------------------|------------|
A|--------------------------|------------|
F|--------------------------|------------|
C|-9-9-9-9-9--15-15/17-17---|0-0-3-0-3h5-|
G|-9-9-9-9-9--15-15/17-17---|0-0-3-0-3h5-|
C|-9-9-9-9-9--15-15/17-17---|0-0-3-0-3h5-|x8
                            [_palm muted_]

(guitar heard in background strumming 4th and 5th strings, open fret)


Pre-Chorus: (1:24-1:35)I don't know how to play this part. Tab it yourself.

Chorus: (1:35-1:56) Play the intro and then play this...
D|----------------------------------------------------------|
A|----------------------------------------------------------|
F|-77777777-55555555-44444444-33333333--5-5-5-55-6-6666-3-0-|
C|-77777777-55555555-44444444-33333333--5-5-5-55-6-6666-3-0-|
G|-55555555-33333333-22222222-11111111--5-5-5-55-6-6666-3-0-|
C|----------------------------------------------------------|
  [_____________palm muted____________]


Replay:

INTRO (1:57-2:27) (guitar in background bends 12th fret of 3rd string x3)

Verse 4:
D|-------------------|   D|------------------------| D|-------------|
A|-------------------|   A|------------------------| A|-------------|
F|----------55-555-5-|   F|------------------------| F|-------------|
C|-00-000-0-55-555-5-|   C|-9-9-9-9-9--15-15/17-17-| C|-0-0-3-0-3h5-|
G|-00-000-0-33-333-3-|   G|-9-9-9-9-9--15-15/17-17-| G|-0-0-3-0-3h5-|
C|-00-000-0----------|x3 C|-9-9-9-9-9--15-15/17-17-| C|-0-0-3-0-3h5-|x8

Guitar Lick: (2:19-2:21)
D|-----------|
A|-----------|
F|-8b-7-5----|
C|--------7/-|
G|-----------|
C|-----------|

Pre-Chorus 2: (2:27-2:33) Bend the 10th fret of the 3rd string 7 or 8 times, slide down.


Repeat:

CHORUS (2:33-2:54)
 and
INTRO  (2:54-3:00) Note: Play ONLY the first string of power chord here.


Bridge: (3:00-3:24) Just bend 9th fret of 3rd string, then bend the 7th
                    whole notes apart until the bridge is over.


Repeat:

CHORUS: (3:24-3:46)
 and
INTRO:  (3:46-3:58) Note: Play ONLY the first string of power chord here.


Ending: (3:58-END)
D|---------|                    D|----|
A|-------7-|                    A|----|
F|-------7-|                    F|----|
C|-00000-5-|                    C|-0~-|
G|-00000---|                    G|-0~-|
C|-00000---|x8 and to finish... C|-0~-|


It took me a few hours to tab this whole thing.
It's a difficult song to play, so if you are a beginner, this is not the song for you. 


| /  slide up
| \  slide down
| h  hammer-on
| p  pull-off
| ~  vibrato
| +  harmonic
| x  Mute note
| b  bend
===============================================================================





Comments


Popular Saving Abel tabs & chords
Addicted Bass Tabs
After All Chords
Angel Without Wings Chords
Beautiful Day Chords
Sailed Away 1 Chords
Addicted 1 Tabs
Addicted 3 Tabs
Beautiful You Intro Tabs
Addicted Ukulele
After All Ukulele


Song lyrics



↑ Back to top | Tablatures and chords are parodies/interpretations of the original songs. You may use it for private study, scholarship, research or language learning purposes only
© 2014 AZChords.com Contact us | Privacy policy | DMCA | Add/correct tabs | Request tabs | Top 50 tabs