>
 >
Sex Is Good

Sex Is Good Guitar Tabs

Saving Abel - Sex Is Good chords, tabs, tablatures, lyrics

Guitar lessons | Add/correct | Request | Top 50 tabs Artists:  A B C D E F G H I J K L M N O P Q R S T U V W X Y Z 0-9

Sex Is Good Guitar Tabs – Saving Abel

CD, Sheet music, Poster

Do you like Sex Is Good? Share with your friends now
Tabs
Sex is Good
By Saving Abel


Dropped C tuning  CGCFAD


INTRO:
GUITAR 1
D|------------------------------------|
A|----3-------------------------------|
F|-------2------2-----------0---------|   6x
C|-----------------0-----0------------|
G|-----------3------------------------|
C|-0------------------3---------3/5---|

GUITAR 2 (small bit after first time thru on live version)
D|--------------|
A|--------------|
F|--7p6-5--7~---|
C|--------------|
G|--------------|
C|--------------|


1ST VERSE:
GUITAR 1
D|------------------------------------------|
A|------------------------------------------|
F|------------------------------------------|
C|-7-7-7-7--10-10-10-10---------------------|    4x
G|-5-5-5-5--8--8--8--8---3-3-3-3--5-5-5-5---|
C|-----------------------3-3-3-3--5-5-5-5---|

GUITAR 2
D|-----------------------------------|
A|-----------------------------------|
F|-----------------------------------|     4x
C|---------5-5-5-5-------------------|
G|-0-0-0-0-3-3-3-3-3-3-3-3-5-5-5-5---|
C|-0-0-0-0---------3-3-3-3-5-5-5-5---|
PM|-------------------------------|


CHORUS:
GUITAR 1
D|--------------------------------------------------------------|
A|--------------------------------------------------------------|
F|--------------------------------------------------------------|
C|-7-7-7---10-10---5-5-5--12-12---7-7-7--10-10---5-5-5--12-12---|   2x
G|-5-5-5---8--8----3-3-3--10-10---5-5-5--8--8----3-3-3--10-10---|
C|--------------------------------------------------------------|
GUITAR 2
D|----------------------------------------------------------------|
A|-3-3-3-----------3-3-3----------3-3-3----------3-3-3------------|
F|-2-2-2-----------2-2-2----------2-2-2----------2-2-2------------|
C|-0-0-0-----------0-0-0----------0-0-0----------0-0-0--3-3-5-5---|   2x
G|-0-0-0---3--2----0-0-0--3--2----0-0-0--3--2----0-0-0--3-3-5-5---|
C|-0-0-0-----------0-0-0----------0-0-0----------0-0-0--3-3-5-5---|

SOLO 1:
GUITAR 2
D|---------------------------------------------------------|
A|---------------------------------------------------------|
F|-/12-13-14-14b-12--10-12-10-----14-13-12-10-12--9br-7~---|
C|----------------------------12---------------------------|
G|---------------------------------------------------------|
C|---------------------------------------------------------|
GUITAR 1
PLAY CHORUS 2x


INTRO  1x
GUITAR 1&2


2ND VERSE:
GUITAR 1&2
D|-----------------------------------|
A|-----------------------------------|
F|-----------------------------------|     4x
C|---------5-5-5-5-------------------|
G|-0-0-0-0-3-3-3-3-3-3-3-3-5-5-5-5---|
C|-0-0-0-0---------3-3-3-3-5-5-5-5---|
P.M.------------------------------|


CHORUS  2x


1ST SOLO  1x


BRIDGE:
GUITAR 1
D|----------------------------------|
A|----------------------------------|
F|-----10-----9-----7-----3-----5---|   4x
C|-0-0----0-0---0-0---0-0---0-0-----|
G|----------------------------------|
C|----------------------------------|
GUITAR 2
D|---------------------------------|
A|---------------------------------|
F|---------------------------------|   4x
C|---------------------------------|
G|-----8-----7-----5-----1-----3---|
C|-0-0---0-0---0-0---0-0---0-0-----|


SOLO 2:
GUITAR 2
D|-10--8\-----/5---3/------------------------------|
A|---------------------------3-5-5b-5p4-3\1-1/3/---|
F|-------------------------5-----------------------|
C|-12--10\----/7---5/------------------------------|
G|-------------------------------------------------|
C|-------------------------------------------------|

D|-/10--8\----/5-4-3/--------7--7--7--7--------7--------------|
A|-----------------------8b--8b-8b-8b-8br--8p6---6-8----------|
F|---------------------------------------------------7-5-7~---|
C|-/12--10\---/7-6-5/-----------------------------------------|
G|------------------------------------------------------------|
C|------------------------------------------------------------|
GUITAR 1
PLAY CHORUS 4x


3RD VERSE:
GUITAR 1
D|-----------------------------------|
A|-----------------------------------|
F|-----------------------------------|     4x
C|---------5-5-5-5-------------------|
G|-0-0-0-0-3-3-3-3-3-3-3-3-5-5-5-5---|
C|-0-0-0-0---------3-3-3-3-5-5-5-5---|
P.M.------------------------------|
GUITAR TWO:
D|-------------------------------|
A|-------------------------------|
F|-------------------------------|    2x
C|-------------------------------|
G|-----5*-----5*-----5*-----5*---|
C|-0-0----0-0----0-0----0-0------|
PM|---|  |---|  |---|  |---|


CHORUS 4x


SOLO 3:
GUITAR 2
D|----------------------------------------------------------|
A|----------------------------------------------------------|
F|-/12-13-14-14b-12--10-12-10-----/14-13-12-10-12--9br-7~---|
C|----------------------------12----------------------------|
G|----------------------------------------------------------|
C|----------------------------------------------------------|

(not exactly sure here)
D|---------------------------------------------------|
A|---------------------------------------------------|
F|-/3-4-5-5br-3--/7-8-9b---/14-13-12-10-12--9br-7~---|
C|---------------------------------------------------|
G|---------------------------------------------------|
C|---------------------------------------------------|
GUITAR 1
PLAY CHORUS 4x





Comments


Popular Saving Abel tabs & chords
18 Days Chords
Angel Without Wings Chords
Beautiful Day Chords
Beautiful Day 1 Chords
Tear Myself In Two Chords
Beautiful You Intro Tabs
Running From You Tabs
Sailed Away Intro Tabs
Angel Without Wings Ukulele
She Got Over Me Ukulele


Song lyrics



↑ Back to top | Tablatures and chords are parodies/interpretations of the original songs. You may use it for private study, scholarship, research or language learning purposes only
© 2014 AZChords.com Contact us | Privacy policy | DMCA | Add/correct tabs | Request tabs | Top 50 tabs