» » »

Saving Abel, 18 Days Tabs (ver.1)

Artists:  A B C D E F G H I J K L M N O P Q R S T U V W X Y Z # 

18 Days Tabs (ver.1)

Saving Abel Tabs
 Rating:
3.6/5 (7 votes)
18 Days lessons Tabs too difficult? Try these video lessons and learn fast
                Saving Abel
Standard

(i haven't tabbed out some parts, like Gtr.2, but heres the way i hear Gtr.1's part.)

-Verse-
1. It’s been
|-3-3-----0~----------3-------3~------3---|
|-1---1---1~----------3-3-----0~----------|
|-2-----2-0~------0---0---0---0~--------0-|
|-3-------2~--------2-0-----0-0~----------|
|-0-------3~--0h3-----2-------2~--0h2-----|
|-----------------------------3-----------|
eighteen days, since I look at myself. I don’t wanna
state of mind, or is it everything else. I don’t wanna

|-3-3-----0~----------3-3-----0~----------|
|-1---1---1~----------3---3---1~------1---|
|-2-----2-0~------0---0-----0-2~--------2-|
|-3-------2~--------2-0-------2~----2-----|
|-0-------3~--0h3-----2-------0~--0-------|
|-----------------------------------------|
have to change, if I don’t then no one will. 2. Is it my
have to be here, I don’t understand it now.

 Gtr.2
|---12--12----12----12-------13-12-10-----12--12----------------------|
|-----13--13----13----13-------------13-----13--13---1313131313131313-|
|-12--------12----12----12-12-----------12---------12-----------------|
|---------------------------------------------------------------------|
|---------------------------------------------------------------------|
|---------------------------------------------------------------------|

-Chorus-
1. Cause it’s been
2. I’m trying hard to
  F        Am       C        G
|-1--------5--------3--------3--------|
|-1--------5--------5--------3--------|
|-2--------5--------5--------4--------|
|-3--------7--------5--------5--------|
|-3--------7--------3--------5--------|
|-1--------5-----------------3--------|
eighteen days, since I first held you. But to me it
re-arrange, sometimes it’s the hardest thing to do. But that’s another
  F        Am       G        Am
|-1--------5--------3--------5--------|
|-1--------5--------3--------5--------|
|-2--------5--------4--------5--------|
|-3--------7--------5--------7--------|
|-3--------7--------5--------7--------|
|-1--------5--------3--------5--------|
feels just like, it feels like a lifetime.
eighteen days, without you...

-Verse2-
and time after time, I’ve been through this
you show me what it means to live, you give me hope when I was hopeless.
as my days fade to night, I remember that state of mind
I’m soaring straight in to your heart, ?

-Chorus-

-Bridge-
and I know what they say, about all good things
will they come to end, but I’ll fight this time
so that we might, have a chance to live

-Verse-
it’s been eighteen days, since I look at myself.
I don’t wanna have to change, if I don’t then no one will.

-Chorus-
cause it’s been too many days, since I first held you.
Cause to me it feels just like, it feels like a lifetime.
I’m trying hard to re-arrange, sometimes it’s the hardest thing to do.
that’s just too many days, without you

-End Chorus-
Cause I know what they say, about all good things
will they come to end, but I’ll fight this time
so that we might, have a chance and live
            
Submit corrections

comments powered by Disqus
↑ Back to top | Saving Abel Tabs for 18 Days. Lyrics for acoustic guitar and electric guitar. Tablatures and chords are parodies/interpretations of the original songs. You may use it for private study, scholarship, research or language learning purposes only