» » »

Saving Abel, Drowning (Face Down) Tabs (ver.3)

Artists:  A B C D E F G H I J K L M N O P Q R S T U V W X Y Z # 

Drowning (Face Down) Tabs (ver.3)

Saving Abel Tabs
 Rating:
4/5 (4 votes)
Drowning (Face Down) lessons Tabs too difficult? Try these video lessons and learn fast
1
                
Intro
e|-----0h2----------------------------|
B|----3-----3-----3------3-3-----3----|
G|---2-----2-3-----2-2--0--0----0-----|
D|--0---------0-----0--0---0-0h2------|  x2
A|--------------------3----3----------|
E|--------------3---------------------|
Verses (acoustic) You'll have to listen for strumming pattern, pretty standard
e|--2-----------------3-------------------2-------------------3---|
B|--3--------1--------3-------------------3---------------1---3---|
G|--2--------0--------0-------------------2---------------0---0---|
D|--0--------2--------0-------------------0---------------2---0---|
A|-----------3--------2-----------------------------------3---2---|
E|--------------------3---------------------------------------3---|
  1.Times before I walked through the valley below the sun
  2.Returning home I find myself Wishing I was already gone

e|--2--------------------3------2---------------------------3-----|
B|--3-------------1------3------3---------------------1-----3-----|
G|--2-------------0------0------2---------------------0-----0-----|
D|--0-------------2------0------0---------------------2-----0-----|
A|----------------3------2----------------------------3-----2-----|
E|-----------------------3----------------------------------3-----|
   1.I've wandered endlessly and waited for my time to come
   2.But how long does it take to find me Well I'm waiting for someone

  Pre-Chorus
e|--------------1-------1-------------------3------------------|
B|--------------3-------1------------1------3------------------|
G|--------------3-------2------------0------0------------------|
D|--------------3-------3------------2------0------------------|
A|--------------1-------3------------3------2------------------|
E|----------------------1-------------------3------------------|
    I think I'm drowning Can someone lend a hand?

e|---------------1-------1----------------------3---------------|
B|---------------3-------1--------------1-------3---------------|
G|---------------3-------2--------------0-------0---------------|
D|---------------3-------3--------------2-------0---------------|
A|---------------1-------3--------------3-------2---------------|
E|-----------------------1----------------------3---------------|
     Can someone save me? Cause I don't think I can

  Chorus Distortion(Again listen for the strumming)
e|------------------------------------------------|
B|------------------------------------------------|
G|--------------------------5---5-5---------------|
D|---7----------------------5---5-5--5------------|
A|---7----------------------3---3-3--5------------|
E|---5-------------------------------3------------|
     I've gone too far to turn around
                            The lead guitar plays a riff right here
                            Can't figure it out
                                         pm..pm..
e|--------------------------------------------------------|
B|--------------------------------------------------------|
G|---------------------------------------555-444----------|
D|---7-----------------------------------555-444-3----5---|
A|---7-----------------------------------333-222-3----5---|
E|---5-------------------------------------------1----3---|
     It's hard to reach for you When I'm lying   face down

e|-------------------------------------------------------------------|
B|-------------------------------------------------------------------|
G|--------------------------------5----------------------------------|
D|---7----------------------------5----5---------------7-------------|
A|---7----------------------------3----5---------------7-------------|
E|---5---------------------------------3---------------5-------------|
     I can't relieve my soul I'm lost, I’m lost in a moment
         pm..pm..
e|-------------------------------------------------------------------|
B|-------------------------------------------------------------------|
G|-------555-444-----------------------------------------------------|
D|-------555-444----3----5-------------------------------------------|
A|-------333-222----3----5-------------------------------------------|
E|------------------1----3-------------------------------------------|
        Lying…      face down

  Leading up to solo, Lead plays intro 4 times  after 3 times rhythm kicks in with what 
like a G power chord palm muted until the solo starts then he plays the chorus 
under the solo.
Solo Still working it out.

After solo chorus two mores times.  This time with lead continuing to solo while rhythm 
the chords. Will try to figure out the lead until then enjoy.

Riff progression
Intro x2
Verse 1
Pre-Chorus x2
Chorus
Verse 2
Pre-Chorus x2
Chorus
Intro x4
Solo/Chorus x1
Chorus x2
            
Submit corrections

comments powered by Disqus
↑ Back to top | Saving Abel Tabs for Drowning (Face Down). Lyrics for acoustic guitar and electric guitar. 1 Tablatures and chords are parodies/interpretations of the original songs. You may use it for private study, scholarship, research or language learning purposes only