» » »

Drowning (Face Down) Tabs (ver.2)

Artists:  A B C D E F G H I J K L M N O P Q R S T U V W X Y Z # 

Drowning (Face Down) Tabs (ver.2)

Saving Abel
Rating:
0/5 (0 votes)

Tabs too difficult? Try these video lessons and learn fast.
                This is the video version of the song with the distorted intro and shorter entry to 
I'm still working on the main solo and the solo on the end but i'm pretty sure the rest is 
This is my first tab so please rate. Great Song!!!   Drop D tuning

Intro
e|-----------------------------------------------------------------|
B|-----------------------------------------------------------------|
G|----------------------7--777-222-55-----------0h2----------------|
D|----------------------7--777-222-55-5-------0--------------------|
A|--3-3-2-----3-3-2-----5--555-000-33-5---2-3----------------------|
D|--------3---------5-----------------5-5--------------------------|

e|---------------------------------------------------------------|
B|---------------------------------------------------------------|
G|-7-777-222-555-------------------------------------------------|
D|-7-777-222-555-555-3~-3h5--------------------------------------|
A|-5-555-000-333-555-3~-3h5--------------------------------------|
D|---------------555-3~-3h5--------------------------------------|
             xxx xxx
Verse
e|-----------------3-333-----------------------------------------|
B|-3-3333-33--111--3-333-----------------------------------------|
G|-2-2222-22--000--0-000-----x4----------------------------------|
D|-0-0000-00--222--0-000-----------------------------------------|
A|------------333--3-333-----------------------------------------|
D|---------------------------------------------------------------|

Pre-Chorus
e|-----1-11-------3-333------1-11------3~---------------------------|
B|-33--1-11---111-3-333---33-1-11--111-3~---------------------------|
G|-33--2-22---000-0-000---33-2-22--000-0~---------------------------|
D|-33--3-33---222-0-000---33-3-33--222-0~---------------------------|
A|-11--3-33---333-3-333---11-3-33--333-3~---------------------------|
D|------------------------------------------------------------------|

Chorus
e|---------------------------------------------------------------|
B|---------------------------------------------------------------|
G|-7--777-222-55-----------0h2--7--777-222-555-------------------|
D|-7--777-222-55-5-------0------7--777-222-555-555-3~-3h5-x2-----|
A|-5--555-000-33-5---2-3--------5--555-000-333-555-3~-3h5--------|
D|---------------5-5---------------------------555-3~-3h5--------|
                                           xxx xxx
(Play verse, prechorus, and chorus again)

Bridge (Pretty sure this is right. Not perfect tho but it fits)
e|-----0h2-------------------------------------------------------|
B|---3-----3-----3------3----3~-3--------------------------------|
G|--2-------2---2-2----0-0---0~-0------x2------------------------|
D|-0---------0-0------0---0--0~-0--------------------------------|
A|-------------------3-------3~-3--------------------------------|
D|---------------------------------------------------------------|

(Working on solo. The rhythm guitar plays this 4 times during solo.Then play chorus and 
with this once)
e|---------------------------------------------------------------|
B|---------------------------------------------------------------|
G|-7--777-222-55--------7--777-222-555---------------------------|
D|-7--777-222-55-5~-55--7--777-222-555-555-3~--------------------|
A|-5--555-000-33-5~-55--5--555-000-333-555-3~--------------------|
D|---------------5~-55-----------------555-3~--------------------|
                                   xxx xxx

| h  hammer-on
| ~  vibrato
| x  palm Mute
            
Tabs too difficult? Try these video lessons and learn fast.




comments powered by Disqus
↑ Back to top | Tablatures and chords are parodies/interpretations of the original songs. You may use it for private study, scholarship, research or language learning purposes only