» » »

Saving Abel, Addicted Tabs (ver.3)

Artists:  A B C D E F G H I J K L M N O P Q R S T U V W X Y Z # 

Addicted Tabs (ver.3)

Saving Abel Tabs
 Rating:
4/5 (4 votes)
Addicted lessons Tabs too difficult? Try these video lessons and learn fast
                //INTRO//

--------1-0----------1-0----------1-0-------------1-0-----------1--0----|
-----------1------------1------------1--------------------------------1-|
------2------------0------------2---------------3-------5---------------|
----0-------------------------------------------3-------5---------------|
-----------------3------------1-----------------1-------3---------------|
------------------------------------------------------------------------|

2x...

//PREVERSE//VERSE//

--------1-0--------1-0---------------------------------------------------|
-------------1---------1-------------------------------------------------|
---7-------------5---------3---5-----------------------------------------|
---7-------------5---------3---5-----------------------------------------|
---5-------------3---------1---3-----------------------------------------|
-------------------------------------------------------------------------|
3x...



REPEADTED THROUGH ENTIRE SONG!!!!!!
------------------------------------------------------------------------|
------------------------------------------------------------------------|
---------7----5---3---5-------------------------------------------------|
---------7----5---3---5-------------------------------------------------|
---------5----3---1---3-------------------------------------------------|


FIGURE OUT PATTERN URSELF
------------------------------------------------------------------------
            
Submit corrections

comments powered by Disqus
↑ Back to top | Saving Abel Tabs for Addicted. Lyrics for acoustic guitar and electric guitar. Tablatures and chords are parodies/interpretations of the original songs. You may use it for private study, scholarship, research or language learning purposes only