» » »

Saving Abel, Addicted Bass tabs (ver.1)

Artists:  A B C D E F G H I J K L M N O P Q R S T U V W X Y Z # 

Addicted Bass tabs (ver.1)

Saving Abel Tabs
 Rating:
4/5 (5 votes)
Addicted lessons Tabs too difficult? Try these video lessons and learn fast
                "Addicted" - Saving Abel

Tuning : Drop D

Pre-Chorus
G|--------------------------------------------|
D|--------------------------------------------|
A|-1~---3~----5~------------------------------|
D|-----------------0-0-0-0-0-0-3-3-3-3-5-5/---|

Chorus
G|------------------------------------------------------|
D|------------------------------------------------------|
A|--------------3--3-3--3-3-----------------------------|
D|-0--0-0--0-0---------------3--3-3--3--5-5-5-3-5-3-5-3-| x2

G|------------------------------------------------------|
D|------------------------------------------------------|
A|-------------1--1-1--1-1--3--3-3--3-------------------|
D|-0--0-0--0-0-------------------------5-5-5-3-5-3-5-3--|

After Chorus
G|----------------------------|
D|----------------------------|
A|----------------------------|
D|-3-5-5-3-5\------3-5-5-3-5\-|

G|----------------------------------|
D|----------------------------------|
A|-1--3--5--9--7--5--3---1---3---5--|
D|----------------------------------|

Pre-Chorus (without the first the ringing notes)
Chorus

Bridge
G|----------------------------------------------------------------------|
D|----------------------------------------------------------------------|
A|-1--1-3--3-------------1--1-3--3--------------------------------------|
D|-----------0---0-0--0------------5--5-5--5-5---0--0-5--5-0--0-0--0----|

G|---------------------------------------------------------------------------|
D|---------------------------------------------------------------------------|
A|---------------------------------------------------------------------------|
D|-3-3-3-3-5-5-5-5-7-7-7-7-7-7-7-7-12\---------------------------------------|

Build Up
G|--------------------------------------|
D|--------------------------------------|
A|-5--5-5--5---7--7-7--7---8-8-8-8--7x--|
D|--------------------------------------|

Chorus

Outro
G|-------------------------------------------|
D|-------------------------------------------|
A|-1--1-3--3---------------------------------|
D|-----------0------------0---0-2--2-3--3-0--|
            
Submit corrections

comments powered by Disqus
↑ Back to top | Saving Abel Bass for Addicted. Lyrics for acoustic guitar and electric guitar. Tablatures and chords are parodies/interpretations of the original songs. You may use it for private study, scholarship, research or language learning purposes only