» » »

You Vandal Tabs (ver.3)

Artists:  A B C D E F G H I J K L M N O P Q R S T U V W X Y Z # 

You Vandal Tabs (ver.3)

Saves The Day
Rating:
0/5 (0 votes)

Hard to play? Try these video lessons and learn fast.
                INTRO:
e:------------------------------------------------------------------------------------------
B:------------------------------------------------------------------------------------------
G:------------------------------------------------------------------------------------------
D:------------------------------------------------------------------------------------------
A:-6--6-6-7-6-6-7-6/7\6---6--6-6-7-6-6-7-6/7\6---6--6-6-7-6-6-7-6/7\6---1--1-1-2-1-1-2-1/2\1
E:-4--4-4-4-4-4-4-4-4-4---0--0-0-0-0-0-0-0-0-0---7-7-7-7-7-7-7-7-7-7----2--2-2-2-2-2-2-2-2-2

VERSE:--G#, E, B, F#

THIS IS THE TRANSFER FROM B to F#
e:------------------------------------------
B:------------------------------------------
G:------------------------------------------
D:------------------------------------------
A:-------8/9/11-11-11/13-11-9-----
E:-------6/7/ 9--9- 9/11---9-7-------

CHORUS:--B, E, G#, F# D# up to E
-----------8--/--9------g
------------------------d
-----------6--/--7------a

bridge-"i hope that your still trying......"
---4---2---4----6-------d
---2---4---6----7-------a

CHORUS:--B, E, G#, F# D# up to E
-----------8--/--9------g
------------------------d
-----------6--/--7------a
then start over, its quite simple
            
Hard to play? Try these video lessons and learn fast. | Correct




comments powered by Disqus
↑ Back to top | Tablatures and chords are parodies/interpretations of the original songs. You may use it for private study, scholarship, research or language learning purposes only