» » »

Saves The Day, I Melt With You Tabs (ver.1)

Artists:  A B C D E F G H I J K L M N O P Q R S T U V W X Y Z # 

I Melt With You Tabs (ver.1)

Saves The Day Tabs
 Rating:
4/5 (4 votes)
I Melt With You lessons Tabs too difficult? Try these video lessons and learn fast
1
                

Same tab as the other guy except I tabbed out the extras he left out. 

Capo on 4th Fret “to get that high pitched sound” 
Intro/Chorus: 

C F 
e|------------1----| 
B|----1-------1----| 
G|----0-------2----| play this throughout most of the song 
D|----2-------3----| 
A|----3-------3----| 
E|------------1----| 

Verses: 
e|----------------------------------------| 
B|----------------------------------------| 
G|----------------------------------------| 
D|---2-------2----------3-------3-0-------| 
A|-----3---3---3----------3---3-----------| 
E|-------3------------------1-------------| 

Interlude: 
e|-----0~-----| 
B|-----0~-----| 
G|-----0~-----| x2 
D|-----2~-----| 
A|-----2~-----| 
E|-----0~-----| 
("the futures open wide.") 
e|-----------------------------------------------| 
B|-----------------------------------------------| 
G|-----------------------------------------------| x2 
D|-----------------------------------------------| 
A|------2----------2--5-----0--3--7--3--5--0-----| 
E|---0-----3----3--------------------------------| 

Solo: 
C F 
e|------------1----| 
B|----1-------1----| 
G|----0-------2----| Play after “solo” has been played twice 
D|----2-------3----| 
A|----3-------3----| 
E|------------1----| 

e|----------------------------------------| 
B|----------------------------------------| 
G|-------9-----------------10--9----------| Play alone twice then keep playing 
D|---------10--------------------10-------| with guitar 2 until end of song 
A|----10-----------------8----------------| 
E|----------------------------------------| 

That’s it, Im missing some small parts because I can’t hear what it is 
in the song, but this is pretty much what the whole song is. Have fun. 

My 2 Cents 
Chino Hills Wussy Core 4 Life 
            
Submit corrections

comments powered by Disqus
↑ Back to top | Saves The Day Tabs for I Melt With You. Lyrics for acoustic guitar and electric guitar. 1 Tablatures and chords are parodies/interpretations of the original songs. You may use it for private study, scholarship, research or language learning purposes only