» » »

You Vandal Tabs (ver.1)

Artists:  A B C D E F G H I J K L M N O P Q R S T U V W X Y Z # 

You Vandal Tabs (ver.1)

Saves The Day
Rating:
0/5 (0 votes)

Tabs too difficult? Try these video lessons and learn fast.
                Dejackamo (mounted your hott blonde sister) Von Ricto from Barstow CA
Im pretty sure its all decent....if there are any problems let me know! 

Intro: ( "." = palm mute, "h" hammer-on ) 
e --------------------------------------------------------------- 
B --------------------------------------------------------------- 
G --------------------------------------------------------------- 
D --------------------------------------------------------------- 
A -666766676h76--666766676h76--666766676h76--111211121h21--(1X)-- 
E -444444444--4--000000000--0--777777777--7--222222222--2-------- 
... .. ... .. ... .. ... .. 

***the non-muted notes are pull offs on the mutes, except for the last note of each group 

Verse: ( "/" = slide up ) 
e --------------------------------------------------------------------- 
B --------------------------------------------------------------------- 
G ---------------999999999999----------------6/8999-11/13111111-------- 
D -666666666666--999999999999------------------------------------------ 
A -666666666666--777777777777--666666666666--4/6777-9/-11-9-9-9--(2X)-- 
E -444444444444----------------777777777777---------------------------- 

e ------ *** then first bar of verse again 2X 
B ------ 
G ------ 
D -888-- 
A -666-- 
E -444-- 

Chorus: 
e ---------------------------------------- 
B ---------------------------------------- 
G ----8/9-----8/9-----8/9-----8/98-------- 
D -99------22------66------44------------- 
A -99-6/7--22-6/7--66-6/7--44-6/76--(4X)-- 
E -77------00------44------22------------- 

e ---------- 
B ---------- 
G ---------- 
D -6-6-6-6-- 
A -6-6-6-6-- 
E -4-4-4-4-- 

Intro: (2X) 

Bridge: 
e ------------------- *** let each chord ring 
B ----5-------------- 
G -4--6--8--9-------- 
D -4--6--9--9-------- 
A -2--4--6--7--(2X)-- 
E ----------0-------- 

Chorus: (6X) 

End: 
e ---- 
B ---- 
G ---- 
D -9-- 
A -9-- 
E -7-- 
            
Tabs too difficult? Try these video lessons and learn fast.




comments powered by Disqus
↑ Back to top | Tablatures and chords are parodies/interpretations of the original songs. You may use it for private study, scholarship, research or language learning purposes only