» » »

Saves The Day, You Vandal Bass tabs (ver.1)

Artists:  A B C D E F G H I J K L M N O P Q R S T U V W X Y Z # 

You Vandal Bass tabs (ver.1)

Saves The Day Tabs
 Rating:
4/5 (4 votes)
You Vandal lessons Tabs too difficult? Try these video lessons and learn fast
                

intro(play really fast
G|-----98-----98----------------------------------|-----|
D|-66-6--666-6-------9--8--9----1-2-1--1h22246444-|-666-|
A|--------------777-7-77-77-7/22-2-2-2------------|-----|
E|------------------------------------------------|-----|
-repeat a couple of times                          ^play this sometimes 
              
chorus
G|------------------------------------
D|-------------------------4h6p4------
A|-22----------22---------------------
E|----00-44-22----00-44-22------------
 
G|------------------------------------
D|-------------------------4h6p4------
A|-22-6h7----6h7----6h7---------------
E|--------00-----44-----22------------
-repeat a couple of times

right after that
G|-------------------
D|-------------------
A|-----------2222-4--
E|-4444-6666---------

strum quietly
G|---------------
D|---2---4-------
A|-----2---------
E|-4-------------
-repeat a couple of times

G|--------------------------------------
D|---4--4-4---6--6-6---9--9-9--9-8-98---
A|-22-22-2--44-44-4--66-66-6-77-7-7--7--
E|--------------------------------------
-repeat a couple of times

then the chorus again

chorus/breakdown
G|--------------------------------
D|--------------------------------
A|-222222------------------4---4--
E|--------000000-4444444-22--22---
-as always repeat a couple of times



there are some slides and variations i left out.
if you cant figure them out yourself your an idiot.
if you think you have a correction or 
want to request a song to for me to tab
            
Submit corrections

comments powered by Disqus
↑ Back to top | Saves The Day Bass for You Vandal. Lyrics for acoustic guitar and electric guitar. Tablatures and chords are parodies/interpretations of the original songs. You may use it for private study, scholarship, research or language learning purposes only