» » »

Saves The Day, Jessie & My Whetstone Tabs (ver.2)

Artists:  A B C D E F G H I J K L M N O P Q R S T U V W X Y Z # 

Jessie & My Whetstone Tabs (ver.2)

Saves The Day Tabs
 Rating:
4/5 (4 votes)
Jessie & My Whetstone lessons Tabs too difficult? Try these video lessons and learn fast
                JESSIE AND MY WHETSTONE - Saves The Day 


Verse C#m B A E 
e|-----------------------0-0-----------------------------------------------------| 
B|------5-5--4-4--2-2-2--0-0-----------------------------------------------------| 
G|------6-6--4-4--2-2-2--1-1----------------(8x)---------------------------------| 
D|------6-6--4-4--2-2-2--2-2-----------------------------------------------------| 
A|------4-4--2-2--0-0-0--2-2-----------------------------------------------------| 
E|-----------------------0-0-----------------------------------------------------| 

 

CHORUS A B E A E 
e|------------------------0-0-0-0-0-0-0-0--0-0-0-0-0-0-0-0--0-0-0-0-0-0-0-0-------| 
B|------2-2-2-2--4-4-4-4--0-0-0-0-0-0-0-0--2-2-2-2-2-2-2-2--0-0-0-0-0-0-0-0-------| 
G|------2-2-2-2--4-4-4-4--1-1-1-1-1-1-1-1--2-2-2-2-2-2-2-2--1-1-1-1-1-1-1-1-------| 
D|------2-2-2-2--4-4-4-4--2-2-2-2-2-2-2-2--2-2-2-2-2-2-2-2--2-2-2-2-2-2-2-2-------| 
A|------0-0-0-0--2-2-2-2--2-2-2-2-2-2-2-2--0-0-0-0-0-0-0-0--2-2-2-2-2-2-2-2-------| 
E|------------------------0-0-0-0-0-0-0-0-------------------0-0-0-0-0-0-0-0-------| 


Verse 2 C#m B A E 
e|-------------------------------0-0----------------------------------------------| 
B|--------------5-5--4-4--2-2-2--0-0----------------------------------------------| 
G|--------------6-6--4-4--2-2-2--1-1----------------(4x)--------------------------| 
D|--------------6-6--4-4--2-2-2--2-2----------------------------------------------| 
A|--------------4-4--2-2--0-0-0--2-2----------------------------------------------| 
E|-------------------------------0-0----------------------------------------------| 


BRIDGE (Palm Muted) 
e|---------------------------------------------------------------------------| 
B|---------------------------------------------------------------------------| 
G|---------------------------------------------------------------------------| 
D|-----6-6-6-6--4-4-4-4--2-2-2-2--9-9-9-9------end on---2-2-2-2--------------| 
A|-----4-4-4-4--2-2-2-2--0-0-0-0--7-7-7-7---------------2-2-2-2--------------| 
E|--------------------------------0-0-0-0---------------0-0-0-0--------------| 


Verse 3 C#m B A E 
e|-------------------------------0-0-----------------------------------------| 
B|--------------5-5--4-4--2-2-2--0-0--------5-5--4-4--2-2-2-2-2-2-2-2--------| 
G|--------------6-6--4-4--2-2-2--1-1---(7x)-6-6--4-4--2-2-2-2-2-2-2-2--------| 
D|--------------6-6--4-4--2-2-2--2-2--------6-6--4-4--2-2-2-2-2-2-2-2--------| 
A|--------------4-4--2-2--0-0-0--2-2--------4-4--2-2--0-0-0-0-0-0-0-0--------| 
E|-------------------------------0-0-----------------------------------------| 


CHORUS E A E 
e|--------0-0-0-0-0-0-0-0--0-0-0-0-0-0-0-0--------0-0-0-0-0-0-0-0-------| 
B|--------0-0-0-0-0-0-0-0--2-2-2-2-2-2-2-2--------0-0-0-0-0-0-0-0-------| 
G|--------1-1-1-1-1-1-1-1--2-2-2-2-2-2-2-2--(3x)--1-1-1-1-1-1-1-1-------| 
D|--------2-2-2-2-2-2-2-2--2-2-2-2-2-2-2-2--------2-2-2-2-2-2-2-2-------| 
A|--------2-2-2-2-2-2-2-2--0-0-0-0-0-0-0-0--------2-2-2-2-2-2-2-2-------| 
E|--------0-0-0-0-0-0-0-0-------------------------0-0-0-0-0-0-0-0-------| 
(3x) 


END C#m B A E 
e|-------------------------------0-0----------------------------------------------| 
B|--------------5-5--4-4--2-2-2--0-0----------------------------------------------| 
G|--------------6-6--4-4--2-2-2--1-1----------------(4x)--------------------------| 
D|--------------6-6--4-4--2-2-2--2-2----------------------------------------------| 
A|--------------4-4--2-2--0-0-0--2-2----------------------------------------------| 
E|-------------------------------0-0----------------------------------------------|
            
Submit corrections

comments powered by Disqus
↑ Back to top | Saves The Day Tabs for Jessie & My Whetstone. Lyrics for acoustic guitar and electric guitar. Tablatures and chords are parodies/interpretations of the original songs. You may use it for private study, scholarship, research or language learning purposes only