» » »

Jessie & My Whetstone Bass tabs (ver.1)

Artists:  A B C D E F G H I J K L M N O P Q R S T U V W X Y Z # 

Jessie & My Whetstone Bass tabs (ver.1)

Saves The Day
Rating:
0/5 (0 votes)

Hard to play? Try these video lessons and learn fast.
                VERSE:
E------------------------------------------
B------------------------------------------
G----6--------4--------------------------
D----6--------4--------7--------2------
A----4--------2--------7--------2------
E----------------------5-------0------

INTRO TO CHORUS:
E----------------------------------------
B---------------------------------------
G----6--------8--------9---------------------
D----6--------8--------9--------------------
A----4--------6--------7---------------------
E----------------------------------------

CHORUS:
E------------------------------------
B-----------------------------------
G----9--------------------------------
D----9--------7----------------------
A----7--------7----------------------
E-------------5-----------------------
            
Hard to play? Try these video lessons and learn fast. | Correct




comments powered by Disqus
↑ Back to top | Tablatures and chords are parodies/interpretations of the original songs. You may use it for private study, scholarship, research or language learning purposes only