» » »

Saves The Day, Get Fucked Up Tabs (ver.2)

Artists:  A B C D E F G H I J K L M N O P Q R S T U V W X Y Z # 

Get Fucked Up Tabs (ver.2)

Saves The Day Tabs
 Rating:
4/5 (4 votes)
Get Fucked Up lessons Tabs too difficult? Try these video lessons and learn fast
                -------------------------------------------------------------------------------

-------------------------------------------------------------------------------
Saves The Day
"Get f**ked Up"
Under The Boards (2007)



Tuning: standard

This song might be in a different tuning, but if your gonna play it in standard tuning, 
is pretty close... if you have any corrections please email them to me.

Intro + Verse
e|1-1--1-1--2-2--2-2-2-2|
B|2-2--2-2--2-2--2-2-2-2|
G|----------------------|
D|----------------------|
A|----------------------|
E|----------------------|

During the verse, dave comes in with this...

"It's four AM on friday..."
e|-4----2--|
B|--2----2-|
G|---1----1|
D|---------|
A|---------|
E|---------|


Chorus
"And every time I think about you..."
e|------------------------------------|
B|------------------------------------|
G|------------------------------------| play this a few times
D|------------------------------------|
A|-8^-8b--6-6--4-------6h8-6----------|
E|---------------6-4------------------|

Verse

Chorus


Bridge
"No more waiting for the days..."
e|----------------------------------------------|
B|----------------------------------------------|
G|----------------------------------------------|
D|----------------------------------------------| play this like 4 times
A|-8-8-8-4-4--9-9-9-4-4--11-11-11-4-4--9-9-9-4-4|
E|----------------------------------------------|

"And Every time I think about you..."
e|---------------------------------------------------------------------------|
B|---------------------------------------------------------------------------|
G|---------------------------------------------------------------------------|
D|---------66666666----------------------------------------------------------|
A|-8---6---44444444-66666666-------------------------------------------------|
E|------------------44444444-------------------------------------------------|
           palm mute...

Chorus

End on
e|--------|
B|--------|
G|--6-----|
D|--6-----|
A|--4-----|
E|--------|


| /  slide up
| \  slide down
| h  hammer-on
| p  pull-off
| ~  vibrato
| +  harmonic
| x  Mute note
=======================================================================
            
Submit corrections

comments powered by Disqus
↑ Back to top | Saves The Day Tabs for Get Fucked Up. Lyrics for acoustic guitar and electric guitar. Tablatures and chords are parodies/interpretations of the original songs. You may use it for private study, scholarship, research or language learning purposes only