» » »

Saves The Day, Get Fucked Up Bass tabs (ver.1)

Artists:  A B C D E F G H I J K L M N O P Q R S T U V W X Y Z # 

Get Fucked Up Bass tabs (ver.1)

Saves The Day Tabs
 Rating:
4/5 (4 votes)
Get Fucked Up lessons Tabs too difficult? Try these video lessons and learn fast
                Saves The Day
Under The Boards
Bass tab

Tuning: half-step down

Intro
Gb|--------------------------------|
Db|--------------------------------|
Ab|--------------------------------|
Eb|---14/------------5-5-5-5-------|

Verse/Bridge riff
Gb|--------------------------------|
Db|--------------------------------|
Ab|------------5-5-5---------------|
Eb|-7--7--5--7-------7-7-5-5-7-7---|

Gb|--------------------------------|
Db|--------------------------------|
Ab|-7--7--5--7h9-9-9-9-9-7-7-5-5---|
Eb|--------------------------------|
          ^For bridge, play 7 here (sometimes).

Chorus
Gb|--------------------------------------|
Db|--------------------------------------|
Ab|-10109-10109-9------7-7-5-7-7-5-5-----|
Eb|---------------10-----------------5---|\
                                          x2.5
Gb|--------------------------------------|/
Db|--------------------------------------|
Ab|-------5-5----------------7-9-9-7-5---|
Eb|-7-7-7-----7-7-7----5-5-5-------------|

Post-Bridge
Gb|----------------------------------------------|
Db|----------------------------------------------|
Ab|-10~--7~--------------------------7-9-9-7-5---|
Eb|-----------7-7-7-7-7-7-7-7--5-5-5-------------|

Outro
Gb|--------------------------------------|
Db|--------------------------------------|
Ab|-10109-10109-9------7-7-5-7-7-5-5-7---|
Eb|---------------10---------------------| x2

Gb|--------------------------------------------|
Db|--------------------------------------------|
Ab|-1010101010101010---------------------------|
Eb|------------------5-5-5-5-5-5-5-5--7~-------|


Intro
Verse
Chorus
Verse
Chorus
Bridge
Post-Bridge
Chorus
Outro
            
Submit corrections

comments powered by Disqus
↑ Back to top | Saves The Day Bass for Get Fucked Up. Lyrics for acoustic guitar and electric guitar. Tablatures and chords are parodies/interpretations of the original songs. You may use it for private study, scholarship, research or language learning purposes only