» » »

All Star Me Tabs (ver.1)

Artists:  A B C D E F G H I J K L M N O P Q R S T U V W X Y Z # 

All Star Me Tabs (ver.1)

Saves The Day
Rating:
0/5 (0 votes)

Tabs too difficult? Try these video lessons and learn fast.
                tuning: normal

. = palm mute
~ = let ring

please rate. and correct if needed.
i am almost 100% sure on it
but maybe some of the rhythmic parts
may not be right.

intro x2
e------------------------------------------------------------|
b------------------------------------------------------------|
g------------------------------------------------------------|
d-5555555555555555-77777777-10101010-------------------------|
a-5555555555555555-77777777-10101010-------------------------|
e-3333333333333333-55555555-88888888-------------------------|
PM                            .  .  .  .  .





verse x2
e------------------------------------------------------------|
b------------------------------------------------------------|
g------------------------------------------------------------|
d-5555555555555555-77777777-10101010-------------------------|
a-5555555555555555-77777777-10101010-------------------------|
e-3333333333333333-55555555-88888888-------------------------|

e------------------------------------------------------|
b------------------------------------------------------|
b------------------------------------------------------|
d-5555555555555555-77777-9-10--1010101010--99-(7)------|     (don't play A on
a-5555555555555555-77777-9-10--1010101010--99-(7)------| last part before bridge)
e-3333333333333333-55555-7--8---8-8-8-8-8--77-(5)------|






bridge x2
e-----------------------------------------------------------|
b-----------------------------------------------------------|
b-----------------------12121212121212121212121212121212-11-|
d-5-5-5-5-55-5-55-5-5-5--x-x-x-x-x-x-x-x-x-x-x-x-x-x-x-x--x-|
a-5-5-5-5-55-5-55-5-5-5-10101010101010101010101010101010--9-|
e-3-3-3-3-33-3-33-3-3-3-------------------------------------|
pm        ..   ..   .

e---------------------------------------------------|
b---------------------------------------------------|
b-12121212121212121212121212121212------------------|
d--x-x-x-x-x-x-x-x-x-x-x-x-x-x-x-x-5555555555555555-|
a-10101010101010101010101010101010-5555555555555555-|
e----------------------------------3333333333333333-|

e-----------------|
b-----------------|
b-----------------|
d-5~--5~--7~--10~-|
a-5~--5~--7~--10~-|
e-3~--3~--5~---8~-|
            
Tabs too difficult? Try these video lessons and learn fast.


comments powered by Disqus
↑ Back to top | Tablatures and chords are parodies/interpretations of the original songs. You may use it for private study, scholarship, research or language learning purposes only