» » »

All Star Me Tabs (ver.2)

Artists:  A B C D E F G H I J K L M N O P Q R S T U V W X Y Z # 

All Star Me Tabs (ver.2)

Saves The Day
Rating:
0/5 (0 votes)

Hard to play? Try these video lessons and learn fast.
                Intro:
e|----------------------------------------------------------------------------------------------
B|---------------------------------------------------------------------------------------------
D|---------------------------------------------------------------------------------------------
G|-5-5-5-5-5-5-5-5-5-5-5-5-5-5-5-5-7--7-7-7-7-7-7-7--10-10-10-10-10-10-10-10
A|-5-5-5-5-5-5-5-5-5-5-5-5-5-5-5-5-7--7-7-7-7-7-7-7--10-10-10-10-10-10-10-10
E|----------------------------------------------------------------------------------------------

Verse:
e|--------------------------------------------------------------------------------------------
B|--------------------------------------------------------------------------------------------
D|--------------------------------------------------------------------------------------------
G|-5-5-5-5-5-5-5-5-5-5-5-5-5-5-5-5-7-7-7-7-7-7-7-7--10-10-10-10-10-10-10-10
A|-5-5-5-5-5-5-5-5-5-5-5-5-5-5-5-5-7-7-7-7-7-7-7-7--10-10-10-10-10-10-10-10
E|--------------------------------------------------------------------------------------------

Bridge:
e|----------------------------------------------------------------------------------------------
B|----------------------------------------------------------------------------------------------
D|----------------------------------------------------------------------------------------------
G|-5-5-5-5-5-5-5-5-5-5-5-5-5-5-5-5-7-7-7-7-7-7-7-7--10-10-10-10-10-10-10-7-7
A|-5-5-5-5-5-5-5-5-5-5-5-5-5-5-5-5-7-7-7-7-7-7-7-7--10-10-10-10-10-10-10-7-7
E|----------------------------------------------------------------------------------------------
            
Hard to play? Try these video lessons and learn fast. | Correct




comments powered by Disqus
↑ Back to top | Tablatures and chords are parodies/interpretations of the original songs. You may use it for private study, scholarship, research or language learning purposes only