» » »

Sara Bareilles, Love Song Tabs (ver.1)

Artists:  A B C D E F G H I J K L M N O P Q R S T U V W X Y Z # 

Love Song Tabs (ver.1)

Sara Bareilles Tabs
Rating:
4/5 (4 votes)
Love Song lessons Tabs too difficult? Try these video lessons and learn fast
                Sara Bareilles 

SrxShadow


Verse
e|--3----1---1------0--1-----0--1------2----------------------------------|
B|--3----1---1------1--3-----1--1------3----------------------------------|
G|--3----2---3------0--2-----0--2------2----------------------------------|
D|--5----3---3------2--0-----2--3------0----------------------------------|
A|--5----0---1------3--------3--3------0----------------------------------|
E|--3---------------------------1------2----------------------------------|


Pre-Chorus
e|--3---0------------0-----------------------------------------------------|
B|--3---1-------3----1-----------------------------------------------------|
G|--3---2-------3----2-----------------------------------------------------|
D|--5---2-------3----2-----------------------------------------------------|
A|--5---0-------1----0-----------------------------------------------------|
E|--3----------------------------------------------------------------------|
Chorus

e|--3---0----1----------------3---1---1-------3----------0-----------------|
B|--3---1----1----3-----------3---1---3-------0-----3----1-----------------|
G|--3---0----2----3-----------3---2---2-------0-----3----0-----------------|
D|--5---2----3----3-----------5---3-----------0-----3----2-----------------|
A|--5---3----3----1-----------5---3-----------2-----1----3-----------------|
E|--3--------1----------------3---1-----------3----------------------------|


Bridge
e|--1--0-----------1--0---------------1---0-------0------------------------|
B|--3--1-----3-----1--1---------------3---2---3---1------------------------|
G|--2--2-----3-----2--0---------------2---2---3---0------------------------|
D|--0--2-----3-----3--2---------------0---2---3---2------------------------|
A|-----0-----1-----3--3-------------------0---1---3------------------------|
E|-----------------1-------------------------------------------------------|
            

comments powered by Disqus
↑ Back to top | Sara Bareilles Tabs for Love Song. Lyrics for acoustic guitar and electric guitar. Tablatures and chords are parodies/interpretations of the original songs. You may use it for private study, scholarship, research or language learning purposes only