» » »

Love Song Tabs (ver.2)

Artists:  A B C D E F G H I J K L M N O P Q R S T U V W X Y Z # 

Love Song Tabs (ver.2)

Sara Bareilles
Rating:
4/5 (2 votes)

Hard to play? Try these video lessons and learn fast.
                (Intro)
Sara Bareilles
Love Song

Not exact, but fairly close.  Finger pick using your thumb for bass notes (let ring) and 
fingers for the higher notes.


E------------|----------|--1--1--1--1--|-------|-----5--5--5--5--|
B-3--3--3--3-|-----1----|--1--1--1--1--|-----3-|-----6--6--6--6--|
G-3--3--3--3-|-----2----|--3--3--3--3--|-----5-|-----7--7--7--7--|
D-5--5--5--5-|-----3----|--------------|-----5-|-----------------|
A------------|--0-----0-|--1-----------|-1s3-3-|-3s5-5-----------|
E-3----------|----------|--------------|-------|-----------------|

E-----5--5--5--6-----|
B-----6--6--6--6-----|
G-----5--5--5--5-----|
D--------------------|
A-5h7-8--------------|
E----------------0h2-|
            
Hard to play? Try these video lessons and learn fast. | Correct




comments powered by Disqus
↑ Back to top | Tablatures and chords are parodies/interpretations of the original songs. You may use it for private study, scholarship, research or language learning purposes only