» » »

Sara Bareilles, Between The Lines Tabs (ver.1)

Artists:  A B C D E F G H I J K L M N O P Q R S T U V W X Y Z # 

Between The Lines Tabs (ver.1)

Sara Bareilles Tabs
 Rating:
4/5 (5 votes)
Between The Lines lessons Tabs too difficult? Try these video lessons and learn fast
                -------------------------------------------------------------------------
BETWEEN THE LINES – Sara Bareilles
-------------------------------------------------------------------------

Here's how a 'Between the Lines' tab could look like. Drop D and capo 2nd,
it's pretty straightforward from there on. Try it out.

Tuning: Drop D
Capo on second fret!

INTRO
e|-----0-----0-------0------0--------0-----0-------0------0--------0-----|
B|---0-----0---0---0---0--0---0----0-----0---0---0---0--0---0----0-----0-|
G|---------------1-------------------------------------------------------|
D|-2-----4-----------------------1-----2-------4---------------------2---|
A|-------------------------------------------------------------4---------|
E|-----------------------------------------------------------------------|

e|-0-------0------0----------------0-------0----0--|
B|---0---0---0--0---0------0-----0-------0----0----|
G|-----1-----------------2-----2-----1h2-----------|
D|---------------------------2---------------------|
A|---------------------4---------------------------|
E|-------------------------------------------------|

VERSES (1,2&3)
e|-----0-----0-------0------0--------0-----0-------0------0--------0-----|
B|---0-----0---0---0---0--0---0----0-----0---0---0---0--0---0----0-----0-|
G|---------------1-------------------------------------------------------|
D|-2-----4-----------------------1-----2-------4---------------------2---|
A|-------------------------------------------------------------4---------|
E|-----------------------------------------------------------------------|

e|-0-------0------0----------------0-------0----0---|
B|---0---0---0--0---0------0-----0-------0----0---0-|
G|-----1-----------------2-----2-----1h2------------|
D|---------------------------2----------------------|
A|---------------------4----------------------------|
E|--------------------------------------------------|

e|-----0-----0-------0------0--------0-----0-------0------0--------0-----|
B|---0-----0---0---0---0--0---0----0-----0---0---0---0--0---0----0-----0-|
G|---------------1-------------------------------------------------------|
D|-2-----4-----------------------1-----2-------4---------------------2---|
A|-------------------------------------------------------------4---------|
E|-----------------------------------------------------------------------|

e|-0-------0------0----------------0-------0-----0--|
B|---0---0---0--0---0------0-----0-------0-----0----|
G|-----1-----------------2-----2-----1h2-----2------|
D|---------------------------2----------------------|
A|---------------------4----------------------------|
E|--------------------------------------------------|

PRE-CHORUS
e|-----0-----0-------0-------0--------0-----0-------0--------------------|
B|---0-----0---0---0---0---0---0----0-----0---0---0---0------------------|
G|-----------------------------------------------------------------------|
D|-----------------------2----------------------2------------------------|
A|---------------2----------------0-----2--------------------------------|
E|-1-----4---------------------------------------------------------------|

CHORUS1
e|-----0-----0-------0-------0--------0-----0-------0-------0----|
B|---0-----0---0---0---0---0---0----0-----0---0---0---0---0---0--|
G|---------------------------------------------------------------|
D|-----------------------2------------------------------2--------|  x2
A|---------------2----------------0-----2-------4----------------|
E|-2-----6-------------------------------------------------------|

e|-----0-----0-------0-------0--------0-----0-------0----|
B|---0-----0---0---0---0---0---0----0-----0---0---0---0--|
G|-------------------------------------------------------|
D|-----------------------2-------------------------------|
A|---------------2----------------0-----2-------4--------|
E|-1-----4-----------------------------------------------|

INTERLUDE
e|-----0-----0-------0------0--------0-----0-------0------0----|
B|---0-----0---0---0---0--0---0----0-----0---0---0---0--0---0--|
G|---------------1---------------------------------------------|
D|-2-----4-----------------------1-----2-------4---------------|
A|-------------------------------------------------------------|
E|-------------------------------------------------------------|

CHORUS2
e|-----0-----0-------0-------0--------0-----0-------0-------0----|
B|---0-----0---0---0---0---0---0----0-----0---0---0---0---0---0--|
G|---------------------------------------------------------------|
D|-----------------------2------------------------------2--------|  x2
A|---------------2----------------0-----2-------4----------------|
E|-2-----6-------------------------------------------------------|

e|-----0-----0-------0-------0--------0-----0-------0-------0----|
B|---0-----0---0---0---0---0---0----0-----0---0---0---0---0---0--|
G|---------------------------------------------------------------|
D|-----------------------2------------------------------2--------|
A|---------------2----------------0-----2-------4----------------|
E|-1-----4-------------------------------------------------------|

e|-----0-----0-------0-------0--------0-----0-------0----|
B|---0-----0---0---0---0---0---0----0-----0---0---0---0--|
G|-------------------------------------------------------|
D|-----------------------2-------------------------------|
A|---------------2----------------0-----2-------4--------|
E|-1-----4-----------------------------------------------|

BRIDGE
e|-------------------------------------------------------------------|
B|-------5-------5-------5-------5--------0-------0-------0-------0--|
G|-----6-----6---------6-----6----------2-----2---------2-----2------|
D|---6-----6---6-----6-----6---6------2-----2---2-----2-----2---2----| x2
A|-4---------------4----------------0---------------0----------------|
E|-------------------------------------------------------------------|

e|-----0-----0-------0-------0--------0-----0-------0-------0------------|
B|---0-----0---0---0---0---0---0----0-----0---0---0---0---0---0----------|
G|-----------------------------------------------------------------------|
D|-----------------------2------------------------------2----------------|
A|---------------2----------------0-----2-------4------------------------|
E|-1-----4---------------------------------------------------------------|

e|-----0-----0-------0-------0--------0----------------------------------|
B|---0-----0---0---0---0---0---0----0------------------------------------|
G|-----------------------------------------------------------------------|
D|-----------------------2-----------------------------------------------|
A|---------------2----------------0--------------------------------------|
E|-1-----4---------------------------------------------------------------|

OUTRO
e|-----0-----0-------0------0--------0-----0-------0------0--------0-----|
B|---0-----0---0---0---0--0---0----0-----0---0---0---0--0---0----0-----0-|
G|---------------1-------------------------------------------------------|
D|-2-----4-----------------------1-----2-------4---------------------2---|
A|-------------------------------------------------------------4---------|
E|-----------------------------------------------------------------------|

e|-0-------0------0----------------0-------0-------|
B|---0---0---0--0---0------0-----0-------0---------|
G|-----1-----------------2-----2-----1h2-----------|
D|---------------------------2---------------------|
A|---------------------4---------------------------|
E|-------------------------------------------------|

LYRICS:

VERSE1
Time to tell me the truth, to burden your mouth for what you say
No pieces of paper in the way
Cause I can't continue pretending to choose
These opposite sides on which we fall
The loving you laters if at all

PRE-CHORUS
No right minds could wrong be this many times

VERSE2
My memory is cruel, I'm queen of attention to details
Defending intentions if he fails
Until now, he told me her name, it sounded familiar in a way
I could have sworn I'd heard him say it ten thousand times

PRE-CHORUS
Oh, If only I had been listening

CHORUS1
Leave unsaid unspoken, eyes wide shut unopened
You and me, always between the lines

INTERLUDE
Between the lines

VERSE3
I thought I, thought I was ready to bleed
That we'd move from the shadows on the wall
And stand in the centre of it all
Too late, two choices to stay or to leave
Mine was so easy to uncover, he'd already left with the other

PRE-CHORUS
So I've learned to listen through silence

CHORUS2
Leave unsaid unspoken, eyes wide shut unopened
You and me always be, you and me always be

BRIDGE
I tell myself all the words he surely meant to say
I'll talk until the conversation doesn't stay on
Wait for me I'm almost ready
When he meant let go

CHORUS2
Leave unsaid unspoken, eyes wide shut unopened
You and me always be, you and me always between the lines

OUTRO
Between the lines
Between the lines
Hmm.

=========================================================================
Comment, rate, appreciate!
            
Submit corrections

comments powered by Disqus
↑ Back to top | Sara Bareilles Tabs for Between The Lines. Lyrics for acoustic guitar and electric guitar. Tablatures and chords are parodies/interpretations of the original songs. You may use it for private study, scholarship, research or language learning purposes only