» » »

Bottle It Up Bass tabs (ver.1)

Artists:  A B C D E F G H I J K L M N O P Q R S T U V W X Y Z # 

Bottle It Up Bass tabs (ver.1)

Sara Bareilles
Rating:
4/5 (2 votes)

Hard to play? Try these video lessons and learn fast.
                G---2-----------------|
D----------2----3-----|X4
A-0----------------332|
E------00----1--------|

----2-----------------|
-----------2----3-----|X3
--0----------------332|
-------00----1--------|

----------------------|
----------------------|
---0---0--------------|
--------4---43---32---|

-----5------4------2------5------4------2-----|
----------------------------------------------|
--3------2------0-----3------2------0---------|
-------------------------------------------54-|

----2-----------------|
-----------2----3-----|X3
--0----------------332|
-------00----1--------|

----------------------|
----------------------|
---0---0--------------|
--------4---43---32---|

-----5------4------2------5------4------2-----|
----------------------------------------------|
--3------2------0-----3------2------0---------|
-------------------------------------------54-|

-2-22---0-00---7-76---6-----2-22---0-00---7-76---6---|
------------------------5--------------------------5-|
-----------------------------------------------------|
-----------------------------------------------------|

-2-22---0-00---7-76---6-----2-22---0-00---7-76---6---|
------------------------5--------------------------5-|
-----------------------------------------------------|
-----------------------------------------------------|


----------------------|
----------------------|
---0---0--------------|
--------4---43---32---|

-----5------4------2------5------4------2-----|
----------------------------------------------|X4
--3------2------0-----3------2------0---------|
-------------------------------------------54-|
            
Hard to play? Try these video lessons and learn fast. | Correct




comments powered by Disqus
↑ Back to top | Tablatures and chords are parodies/interpretations of the original songs. You may use it for private study, scholarship, research or language learning purposes only