>
 >
Nosi Balasi Intro

Nosi Balasi Intro Guitar Tabs

Sampaguita - Nosi Balasi Intro chords, tabs, tablatures, lyrics

Guitar lessons | Add/correct | Request | Top 50 tabs Artists:  A B C D E F G H I J K L M N O P Q R S T U V W X Y Z 0-9

Nosi Balasi Intro Guitar Tabs – Sampaguita

CD, Sheet music, Poster

Do you like Nosi Balasi Intro? Share with your friends now
Tabs
Intro:

	Am		F	D		              G	

e|-----------------------------------------------------15--15--15-|
B|---------------10-12-13---10-12-13---10-12-13-------------------|
G|----------------------------------------------------------------|
D|----------------------------------------------------------------|
A|----------------------------------------------------------------|
E|----------------------------------------------------------------|
    Am		F	D		       	G		
e|--------------------------------------------------------------|
B|--1--3--5--1--3--5---1--3--5----------------8----8---8-------|
G|--2--4--5--1--3--5---1--3--5----------------10---10---10-----|
D|--------------------------------------------------------------|
A|--------------------------------------------------------------|
E|--------------------------------------------------------------|





Comments


Popular Sampaguita tabs & chords
Bonggahan Bass Tabs
Easy Lang Pare Bass Tabs
Laguna Bass Tabs
Nosi Balasi Bass Tabs
Nosi Balasi Chords
Nosi Balasi 1 Chords
Nosi Balasi 2 Tabs
Sa Diyos Lamang Tabs
Nosi Balasi Ukulele
Sa Diyos Lamang Ukulele


Song lyrics



↑ Back to top | Tablatures and chords are parodies/interpretations of the original songs. You may use it for private study, scholarship, research or language learning purposes only
© 2014 AZChords.com Contact us | Privacy policy | DMCA | Add/correct tabs | Request tabs | Top 50 tabs