» » »

Sampaguita, Sa Diyos Lamang Tabs (ver.1)

Artists:  A B C D E F G H I J K L M N O P Q R S T U V W X Y Z # 

Sa Diyos Lamang Tabs (ver.1)

Sampaguita Tabs
Rating:
5/5 (1 vote)
Hard to play? Try these video lessons and learn fast.
                
- This is a very beautiful song of sampaguita. I tabbed this dahil walang   gumawa nito.
- This not 100% sure, but I did my best for this song.
- Yong iba ay ½ step down ang kanilang ginamit na mga chords which is E, kinuha ko sa F 
mas magandang pakinggan in opinion.
- It’s up to you kong sa anong Key nyo kokonin, pwedeng E or F.
- Comments are welcome.. kong mas alam nyo yong song just share your talents. Enjoy the song…
INTRO
                        F                 D7
e |--------------------|--------------------------|
b |--------------------|----8--10^----------------|
g |--9-----7----6----4-|--------------------------|
d |-10-----8----7----5-|-/9---------10-12^--10----|
a |-10-----8----7----5-|--------------------------|
e |--8-----6----5----3-|--------------------------|
    Gm                         C
e |--------------------------------------------|
b |-------10^--12^-----------------------------|
g |--------------------------------------------|
d |-/12-------------10-12-114^-14^--12p-10-----|
a |--------------------------------------------|
e |--------------------------------------------|
     Am                      Dm
e |----------------------------------|
b |-13-11-13-15^---15^--13-11-13^----|
g |----------------------------------|
d |----------------------------------|
a |----------------------------------|
e |----------------------------------|
     Bb         F          C
e |---------------------------------------------|
b |-10h11/13^--10h11-11^--10h11-8h10^-----------|
g |---------------------------------------------|
d |-----------------------------------10p8-8----|
a |---------------------------------------------|
e |---------------------------------------------|
     Bb         F          C
e |----------------------------------------|
b |-10h11/13^--10h11-11^-------------------|
g |-----------------------12^-10-10--------|
d |----------------------------------------|
a |----------------------------------------|
e |----------------------------------------|
     Eb
e |-----------------------12-----------|
b |----------------8----8----10-8-10^--|
g |--------------9----9----------------|
d |---------8-10-----------------------|
a |-5--8-10----------------------------|
e |------------------------------------|

(Guitar 2)
e |--------------------|
b |--------------------|
g |--9-----7----6----4-|
d |-10-----8----7----5-|
a |-10-----8----7----5-|
e |--8-----6----5----3-|

VERSE 1
F            C             Dm    Am
Magmula nang makilala kita, sinta
Bb                      Bbm           F    C
Puso ko’y nagbago, isip ko’y nag-iba

Verse 2
(Do Verse 1 Chord)
Dati-rati, Pag-ibig ay laruan lamang
Nagyon ay hindi na kasing tigas ng bato ang puso ko

Chorus:
Dm      Dm+M7 Dm7      Bb             C
Bakit kaya, O, Bakit kaya nangyayari ito
Dm        Dm+M7           Dm7
Kung sino pa ang minamahal mo
Bb                               C-Bb-Am-G
Siya pa ang hindi, hindi tapat sa’yo

Verse 3
(Do verse Chords)
Dapat lang kaya,
Na ikaw ay masisi ko, mahal
Sinabi ko noon sa’yo na wag mo naman akong paglaruan

Verse 4
(Do verse Chords)
Kasalanan ba? Kong kitay mahalin, Hirang
Sinabi mo sa akin baka lamang ito’y pagsisihan

(Chorus)

Adlib
(Do intro Chords)

e |--------------------|
b |--------------------|
g |--9-----7----6----4-|
d |-10-----8----7----5-|
a |-10-----8----7----5-|
e |--8-----6----5----3-|

e |--------15^---------13-15-13--------------------|
b |-----13-----13---15---------15-15---------------|
g |-/14----------14------------------14-14---------|
d |----------------------------------------13-12---|
a |------------------------------------------------|
e |------------------------------------------------|

e |------------------------------------------------------|
b |------------------------------------15^-------15-14---|
g |------------------------------12h14-----12h14---------|
d |-10^-8-7-7/8/8-7/8-------8-10-------------------------|
a |-------------------10--10-----------------------------|
e |------------------------------------------------------|


e |-------------------------10-10---------13-12-10-----------|
b |-------------------11-13-------13^--10----------13-11-10--|
g |-12p10h12-10-8-12^----------------------------------------|
d |----------------------------------------------------------|
a |----------------------------------------------------------|
e |----------------------------------------------------------|

e |-------10-12-13-12-11-----------10-12-13-12-10---------------|
b |-11-13---------------13-11-10-13---------------13-11p10h11^--|
g |-------------------------------------------------------------|
d |-------------------------------------------------------------|
a |-------------------------------------------------------------|
e |-------------------------------------------------------------|

e |-------10-12-13-12-11-----------10-12-13-12-10----------------------|
b |-11-13---------------13-11-10-13---------------13-11p10h11^-11^-11^-|
g |--------------------------------------------------------------------|
d |--------------------------------------------------------------------|
a |--------------------------------------------------------------------|
e |--------------------------------------------------------------------|

e |-----------------------13-----------|
b |----------------8----8----10-8-10^--|
g |--------------9----9----------------|
d |---------8-10-----------------------|
a |-5--8-10----------------------------|
e |------------------------------------|


(Guitar 2)
e |--------------------|
b |--------------------|
g |--9-----7----6----4-|
d |-10-----8----7----5-|
a |-10-----8----7----5-|
e |--8-----6----5----3-|

Verse 5

O pag-ibig,
Bakit kay lupit mo sa tao
Ngayon ay nakita ko ang tunay na damdamin
Ng puso ko, Naririto

Bridge:
     F                Dm
Sa Diyos lamang, sa Diyos lamang
   Bb                   C
Pag-ibig na walang hanggang
     F                Dm
Sa Diyos lamang, sa Diyos lamang
 Gm             C-Bb-Am-Gm
Hindi na masasaktan
(repeat till fade)
            

comments powered by Disqus
↑ Back to top | Sampaguita Tabs for Sa Diyos Lamang. Lyrics for acoustic guitar and electric guitar. Tablatures and chords are parodies/interpretations of the original songs. You may use it for private study, scholarship, research or language learning purposes only