>
 >
Tao

Tao Bass Tabs

Sampaguita - Tao chords, tabs, tablatures, lyrics

Guitar lessons | Add/correct | Request | Top 50 tabs Artists:  A B C D E F G H I J K L M N O P Q R S T U V W X Y Z 0-9

Tao Bass Tabs – Sampaguita

CD, Sheet music, Poster

Do you like Tao? Share with your friends now
Bass Tabs
By Sampaguita

Intro: D-G-Em-D


Verse 1 (bass comes in at 00:29 into the song, after Intro)
  D        D
G|---------|---7-----------|-----7---7-----|
D|---------|-------9-7-----|---------------|
A|-----5---|-5---------9-7-|-5-5---5---5---|
E|-5-7---7-|---------------|-------------7-|
             Tulad ng isang ibon        

  G
G|---------------------|-------------|
D|---------------------|-----5-------|
A|---------------2h5-2-|-------7p5---|
E|-3---3(3)-3h5--------|-3-3-------7-|
  Tao ay lumilipad

  Em                      D
G|---9-9p7-----7h9-----7---|-----7--------------7-|
D|---------9-------7h9---9-|---7----9p7-----------|
A|-----------7-------------|-5---------9-7--5-5---|
E|-0-----------------------|----------------------|
  Pangarap ang tanging nais, na marating at matupad


Verse 2
           D
G|---------|-----7----------|-----7---7-----|
D|-----7---|---7----9-7-----|---------------|
A|-7h9---9-|-5----------9-7-|-5-5---5---5---|
E|---------|----------------|-------------7-|
           Isip ay nalilito

  G
G|---------------------|-------------|
D|---------------------|-----5-------|
A|---------------2h5-2-|-------7p5---|
E|-3---3(3)-3h5--------|-3-3-------7-|
  Pag nakakita ng bago

  Em                      D
G|---9-9p7-----7h9-----7---|-----7--------------7-|------------|
D|---------9-------7h9---9-|---7----9p7-----------|------------|
A|-----------7-------------|-5---------9-7--5-5---|-------55-7-|
E|-0-----------------------|----------------------|-5h7p5------|
  Lahat ng bagay sa mundo, ay isang malaking tukso

 
Chorus
  Bm
G|----------------------------|
D|----------------------------|
A|-0h2-2—0h2-2-0h2-2-0h2-22---|
E|--------------------------5-|
  Bakit pa luluha

  G
G|--------------------|
D|--------------------|
A|--------------------|
E|-3-3-33-3-33-3-33-7-|
  Bakit maghihirap

  A7
G|-----------------------|
D|-----------7h9p7-------|
A|---------7-------7/9-7-|
E|-5-5-5-5---------------|
  Ayaw mang mangyari

  D
G|-----------------------|---------|
D|---7---7-------7---7---|---------|
A|---------7-----------7-|---------|
E|-5---5-------5---5-----|-5h7-7-5-|
  Ay di masasabi

  Bm                       G
G|---------------------------|--------------------------|
D|---------------------------|--------------------------|
A|-0h2-2—0h2-2-0h2-2-0h2-2---|------------------------5-|
E|-------------------------5-|-3-3-33-3-33-3-33-3-5-7---|
  Sasaktan mo lamang         Puso ay wag sugatan

  Em
G|-------7-9-9/11-9-7---------|-11\9-7-----|
D|---7-9--------------9-7-----|--------9-7-|
A|-7----------------------9-7-|------------|
E|----------------------------|------------|
  Ito’y laro lamang

  A         Aaug
G|-------------|
D|-------------|
A|-------------|
E|-5-0h3-3h5-5-|
  Sa mundong makasalanan

 
Verse 3
  D
G|---------|---7-----------|-----7---7-----|
D|---------|-------9-7-----|---------------|
A|-----5---|-5---------9-7-|-5-5---5---5---|
E|-5-7---7-|---------------|-------------7-|
           Tubig ay natutuyo

  G
G|---------------------|-------------|
D|---------------------|-----5-------|
A|---------------2h5-2-|-------7p5---|
E|-3---3(3)-3h5--------|-3-3-------7-|
  Bulaklak ay nalalanta

  Em                                    D 
G|---9-9p7-----7h9-----7---|-----7---------|-----7----------|-----7-------------|
D|---------9-------7h9---9-|---7----9p7----|--------9\7-----|-------------------|
A|-----------7-------------|-5---------9-7-|-5-5--------9\7-|-5-5---------5h7-5-|
E|-0-----------------------|---------------|----------------|-------5-5h7-------|
  Araw ay lumilipas, sa gabi rin ang punta


Instrumental 
  D
G|--------7--------------------7-----------|
D|-----------------------------------------|
A|-55-5-5---------5h7-5—55-5-5-------5h7-5-|
E|----------5-5h7----------------5h7-------|

  G
G|-----------------------------------------|
D|--------5--------------------5-----5h7-5-|
A|----------------5h7-5----------5h7-------|
E|-33-3-3---5-5h7-------33-3-3-------------|

  Em
G|--------9--9-9p7----------9—----7h9-7-|
D|-----------------7----------7-7-------|
A|-77-7-7------------77-7-7-------------|
E|--------------------------------------|

  D
G|--------7--7-7---------------7-----------|
D|-----------------------------------------|
A|-55-5-5---------9-7-5—55-5-5-------5h7-5-|
E|-------------------------------5h7-------|

Repeat last 2 lines of Chorus

  Bm
G|----------------------------|
D|----------------------------|
A|-0h2-2—0h2-2-0h2-2-0h2-22---|
E|--------------------------5-|
  Sasaktan mo lamang
  
  G
G|--------------------------|
D|--------------------------|
A|------------------------5-|
E|-3-3-33-3-33-3-33-3-5-7---|
  Puso ay wag sugatan

  Em
G|-------7-9-9/11-9-7---------|-11\9-7-----|
D|---7-9--------------9-7-----|--------9-7-|
A|-7----------------------9-7-|------------|
E|----------------------------|------------|
  Ito’y laro lamang

  A         Aaug
G|-------------|
D|-------------|
A|-5-0h3-3h5-5-|
E|-------------|
  Sa mundong makasalanan

Verse 4
  D
G|---------|---7-----------|-----7---7-----|
D|---------|-------9-7-----|---------------|
A|-----5---|-5---------9-7-|-5-5---5---5---|
E|-5-7---7-|---------------|-------------7-|
           Tulad ng isang ibon

  G
G|---------------------|-------------|
D|---------------------|-----5-------|
A|---------------2h5-2-|-------7p5---|
E|-3---3(3)-3h5--------|-3-3-------7-|
  Tao rin ay mamamatay

  Em
G|---9-9p7-----7h9-----7---|-----7---------|-----7----------|-----7-------------|
D|---------9-------7h9---9-|---7----9p7----|--------9\7-----|-------------------|
A|-----------7-------------|-5---------9-7-|-5-5--------9\7-|-5-5---------5h7-5-|
E|-0-----------------------|---------------|----------------|-------5-5h7-------|
  Pangarap nyang tanging nais, makarating sa kabilang buhay


Repeat Instrumental (to Outro/Fade Out)





Comments


Popular Sampaguita tabs & chords
Laguna Bass Tabs
Nosi Balasi Chords
Nosi Balasi 1 Chords
Sa Diyos Lamang Chords
Nosi Balasi Tabs
Nosi Balasi 2 Tabs
Nosi Balasi 3 Tabs
Nosi Balasi Intro Tabs
Nosi Balasi Ukulele
Sa Diyos Lamang Ukulele


Song lyrics



↑ Back to top | Tablatures and chords are parodies/interpretations of the original songs. You may use it for private study, scholarship, research or language learning purposes only
© 2014 AZChords.com Contact us | Privacy policy | DMCA | Add/correct tabs | Request tabs | Top 50 tabs