» » »

Sampaguita, Nosi Balasi Bass tabs (ver.1)

Artists:  A B C D E F G H I J K L M N O P Q R S T U V W X Y Z # 

Nosi Balasi Bass tabs (ver.1)

Sampaguita Tabs
 Rating:
4.2/5 (5 votes)
Nosi Balasi lessons Tabs too difficult? Try these video lessons and learn fast
                Intro:

G|-----|
D|-----|
A|-----|
E|-13\-|

G|------|------|------|------|
D|------|------|------|------|
A|------|------|-5-55-|------|
E|-5-55-|-1-11-|------|-3-33-|

G|------|------|------|------|
D|------|------|------|------|
A|------|------|-5-55-|------|
E|-5-55-|-1-11-|------|-3-33-|

G|-----|-------|-----|-------|
D|-----|-------|-----|-------|
A|-----|-------|-----|-------|
E|-5-5-|-5-555-|-5-5-|-5-555-|

Verse I:

G|------|---------------|------|---------------|
D|------|---------------|------|---------------|
A|-0-00-|-0-2-0-2-2/3-2-|------|---------------|
E|------|---------------|-1-11-|-1-3-1-3-3/5-3-|

G|------|------|------|--------9-------|
D|------|------|------|------6---7/9-7-|
A|-5-55-|-3-33-|-2-22-|--7-7-----------|
E|------|------|------|----------------|

G|------|---------------|------|---------------|
D|------|---------------|------|---------------|
A|-0-00-|-0-2-0-2-2/3-2-|------|---------------|
E|------|---------------|-1-11-|-1-3-1-3-3/5-3-|

G|------|------|------|-------------14/16-14-|
D|------|------|------|----------14----------|
A|-5-55-|-3-33-|-2-22-|-------11-------------|
E|------|------|------|-12-12----------------|

Chorus:

G|------|------|----------------|----------------|
D|------|------|----------------|----------------|
A|------|------|--------3-------|--------3-------|
E|-1-11-|-3-33-|-55-3-5---5-3-5-|-55-3-5---5-3-5-| 3x

G|------|-------------|
D|------|-------------|
A|------|-------------|
E|-1-11-|-3-------1/5-|

G|------|------|------|------|
D|------|------|------|------|
A|------|------|-5-55-|------|
E|-5-55-|-1-11-|------|-3-33-| 2x

G|-----|-------|-----|-------|
D|-----|-------|-----|-------|
A|-----|-------|-----|-------|
E|-5-5-|-5-555-|-5-5-|-5-555-|

Verse II:

G|------|---------------|------|---------------|
D|------|---------------|------|---------------|
A|-0-00-|-0-2-0-2-2/3-2-|------|---------------|
E|------|---------------|-1-11-|-1-3-1-3-3/5-3-|

G|------|------|------|-------------14/16-14-|
D|------|------|------|----------14----------|
A|-5-55-|-3-33-|-2-22-|-------11-------------|
E|------|------|------|-12-12----------------|

G|------|---------------|------|---------------|
D|------|---------------|------|---------------|
A|-0-00-|-0-2-0-2-2/3-2-|------|---------------|
E|------|---------------|-1-11-|-1-3-1-3-3/5-3-|

G|------|------|------|--------9-----|
D|------|------|------|------6-------|
A|-5-55-|-3-33-|-2-22-|--7-7-----7/8-|
E|------|------|------|--------------|

Chorus:

G|------|------|----------------|----------------|
D|------|------|----------------|----------------|
A|------|------|--------3-------|--------3-------|
E|-1-11-|-3-33-|-55-3-5---5-3-5-|-55-3-5---5-3-5-| 3x

G|------|------------|
D|------|------------|
A|------|------------|
E|-1-11-|-3------13\-|

Adlib:

G|------|------|------|--------|
D|------|------|------|--------|
A|------|------|------|-----57-|
E|-1-11-|-3-33-|-5-55-|-5-57---| 2x

G|------|------|------|------|
D|------|------|------|------|
A|-5-55-|------|-3-33-|------|
E|------|-3-33-|------|-1-11-|

G|------|------|------|------|
D|------|------|------|------|
A|------|-7-77-|------|------|
E|-7-77-|------|-5-55-|-5-55-|

G|------|------|------|------|
D|------|------|------|------|
A|-5-55-|------|-3-33-|------|
E|------|-3-33-|------|-1-11-|

G|------|------|-------|---------|
D|------|------|-------|----20---|
A|------|-7-77-|-0-2-3-|-023--32-|
E|-7-77-|------|-------|---------|

Chorus:

G|------|------|----------------|----------------|
D|------|------|----------------|----------------|
A|------|------|--------3-------|--------3-------|
E|-1-11-|-3-33-|-55-3-5---5-3-5-|-55-3-5---5-3-5-| 3x

G|------|---|
D|------|---|
A|------|---|
E|-1-11-|-3-|

G|------------|---------------|
D|------------|---------------|
A|------------|-------7-5-----|
E|-55-77-88-5-|-5-7-8-----8-7-|

G|------|------|----------------|----------------|
D|------|------|----------------|----------------|
A|------|------|--------3-------|--------3-------|
E|-1-11-|-3-33-|-55-3-5---5-3-5-|-55-3-5---5-3-5-| 3x

G|------|---|
D|------|---|
A|------|---|
E|-1-11-|-3-|

G|------|------|------|------|
D|------|------|------|------|
A|------|------|-5-55-|------|
E|-5-55-|-1-11-|------|-3-33-| 2x

Outro:

G|---------|---------|---|----------|
D|---------|-2p0-----|---|----------|
A|-0-0-2-3-|----2p0--|---|----------|
E|---------|-------3-|---|-3/5-3/5--|
            
Submit corrections

comments powered by Disqus
↑ Back to top | Sampaguita Bass for Nosi Balasi. Lyrics for acoustic guitar and electric guitar. Tablatures and chords are parodies/interpretations of the original songs. You may use it for private study, scholarship, research or language learning purposes only