» » »

Saliva, Bleed For Me Chords (ver.3)

Artists:  A B C D E F G H I J K L M N O P Q R S T U V W X Y Z # 

Bleed For Me Chords (ver.3)

Saliva Tabs
 Rating:
4/5 (4 votes)
Bleed For Me lessons Tabs too difficult? Try these video lessons and learn fast
                Saliva
Bleed For Me
Daredevil Soundtrack
2003

Key: C#

Tuning: Standard EADGBe

Chords used:
Bbm - x133xx or x13321
F# -  244xxx or 244322
G# -  466xxx or 466544
C# -  x466xx or x46664
Ebm - x688xx or x68876
Fm -  133xxx or 133211


Intro: Bbm--F#--Bbm--F#-G# x2

Guitar 2:
       Bbm               F#              Bbm        
G#
e|-4--------------|4------------|-4---------------|-------|
B|----2--1--2-1-2-|---2--4--6-6-|----2--1--2--4-6-|-------|
G|----------------|-------------|-----------------|-3-----|
D|----------------|-------------|-----------------|-------| x2
A|----------------|-------------|-----------------|-------|
E|----------------|-------------|-----------------|-------|


Verse 1:
Bbm          F#
  All I ever wanted
                  C#
was to be at your service
             G#
but now I'm alone
                               Bbm
cause you were here and you're gone
               F#
And all I ever wanted
                    Fm
was to feel I had a purpose
                   F#
but now that's all gone


Refrain:
But if you could give me
Ebm           F#
just one love just one life
Bbm                  G#
just one chance to believe in mine
Ebm           F#
just one love just one life


Chorus:
      C#
you'd bleed for me
             G#
and I didn't dare to notice you
Bbm                    F#
now I'm stuck out on a line
          C#
would you Bleed for me
         G#
I didn't care to be with you
Ebm                    F#
now you're stuck in my mind


Interlude: Bbm--F#--Bbm--F#-G#

Guitar 2:
       Bbm               F#              Bbm        
G#
e|-4--------------|4------------|-4---------------|-------|
B|----2--1--2-1-2-|---2--4--6-6-|----2--1--2--4-6-|-------|
G|----------------|-------------|-----------------|-3-----|
D|----------------|-------------|-----------------|-------|
A|----------------|-------------|-----------------|-------|
E|----------------|-------------|-----------------|-------|


Verse 2:
Bbm          F#
  All I ever wanted
                   C#
was to be what you needed
                    G#
cause something so strong
                  Bbm
it could never be wrong
              F#
And all I can promise
                   Fm
is to say what I'm feeling
                 F#
We've made it so long


(Repeat Refrain and chorus)


Bridge: G#--Bbm--F#--- x2


Guitar 2:
         G#            Bbm                      F#
e|-4-------------|-4-------------|-4-------------------------------|
B|----2-1----1-2-|----2-1----1-2-|----2-1----1-2-------------------|
G|---------1-----|---------3-----|---------3-----3--1--------------|
D|---------------|---------------|---------------4--3--4--3--------|
A|---------------|---------------|---------------------6--4--3h4p3-|
E|---------------|---------------|---------------------------------|

        G#            Bbm        F#    F# very fast!!!
e|-------------|-1-----------|-6---4-|-4------------------------|
B|-------1-2-4-|-------1-2-6-|-------|---6-4------------------6-|
G|-----1-------|-----3-------|-------|-------6--3-5-6-3-5-6-5---|
D|-------------|-------------|-------|--------------------------|
A|-6-----------|-------------|-------|--------------------------|
E|-4-----------|-------------|-------|--------------------------|

Very fast continues
e|---4-6---9---13p11----18-|
B|-6-----9---9-------14----|
G|-------------------------|
D|-------------------------|
A|-------------------------|
E|-------------------------|


Ebm                 F#
just one love in my life


(Repeat Chorus twice)


Outro:
          Bbm       G#
would you bleed for me
          F#        G#
would you bleed for me
          Bbm       G#
would you bleed for me
Ebm              F#
just one love in my life
          Bbm       G#
would you bleed for me
          F#        G#
would you bleed for me
Ebm                 F#(hold)
just one love in my life
            
Submit corrections

comments powered by Disqus
↑ Back to top | Saliva Chords for Bleed For Me. Lyrics for acoustic guitar and electric guitar. Tablatures and chords are parodies/interpretations of the original songs. You may use it for private study, scholarship, research or language learning purposes only