>
 >
Always

Always Guitar Tabs

Saliva - Always chords, tabs, tablatures, lyrics

Guitar lessons | Add/correct | Request | Top 50 tabs Artists:  A B C D E F G H I J K L M N O P Q R S T U V W X Y Z 0-9

Always Guitar Tabs – Saliva

CD, Sheet music, Poster

Do you like Always? Share with your friends now
Bass TabsBass Tabs v2Bass Tabs v3ChordsTabsTabs v2Tabs v3Tabs v4Ukulele
-----------------------------------------------------------------------------
                                ALWAYS – Saliva
-----------------------------------------------------------------------------


Yo, whazzup?  This is only my second tab EVER, but I think it’s 100% correct.
If you have any questions, just e-mail me.

Tuning: 1/2 step down and drop D (Db Ab Db Gb Bb eb from low to high)

INTRO AND VERSE 1 (clean)

eb|----------------------------------------|
Bb|----------------------------------------|
Gb|----------------------------------------| 4x
Db|------2---------7-------7---------7-----|
Ab|----2---2-----5---5---0---0-----7---7---|
Db|--2-------2/5-------0-------5/7---------|

PRE-CHORUS (with distortion)

eb|---------------------------------------------------------------|
Bb|---------------------------------------------------------------|
Gb|---------------------------------------------------------------|
Db|---10x-10x—10x—10x—10x—10x—10x—10x—9x—9x—9x—9x—9x—9x—9x—9x-----|
Ab|---10x-10x—10x—10x—10x—10x—10x—10x—9x—9x—9x—9x—9x—9x—9x—9x-----|
Db|---10x-10x—10x—10x—10x—10x—10x—10x—9x—9x—9x—9x—9x—9x—9x—9x-----|

eb|-----------------------------------------------------------|
Bb|-----------------------------------------------------------|
Gb|-----------------------------------------------------------|
Db|---7x—7x—7x—7x—7x—7x—7x—7x—/10—10-10-10-/12-12-12-12-\-----|
Ab|---7x—7x—7x—7x—7x—7x—7x—7x—/10-10-10-10-/12-12-12-12-\-----|
Db|---7x—7x—7x—7x—7x—7x—7x—7x—/10-10-10-10-/12-12-12-12-\-----|


CHORUS 1(with distortion)

eb|----------------------------------------------------------|
Bb|----------------------------------------------------------|
Gb|----------------------------------------------------------| 2x
Db|--2-2----x-x-x----5-5----x-x-x----7-7----x-x-x----7-7-----|
Ab|--2-2----x-x-x----5-5----x-x-x----0-0----x-x-x----7-7-----|
Db|--2-2----x-x-x----5-5----x-x-x----0-0----x-x-x----7-7-----|

Then,

eb|--------------------------------------|
Bb|--------------------------------------|
Gb|--------------------------------------| 2x
Db|--2-2-2---5-5-5---7-7-7---10-10-10----|
Ab|--2-2-2---5-5-5---0-0-0---10-10-10----|
Db|--2-2-2---5-5-5---0-0-0---10-10-10----|

VERSE 2

eb|----------------------------------------|
Bb|----------------------------------------|
Gb|----------------------------------------| 4x
Db|------2---------7-------7---------7-----|
Ab|----2---2-----5---5---0---0-----7---7---|
Db|--2-------2/5-------0-------5/7---------|

Or, 

eb|------------------------------------------------|
Bb|------------------------------------------------|
Gb|------------------------------------------------| 4x
Db|--2x-2x—2x—--5x—5x—5x---7x—7x—7x---7x—7x—7x-----|
Ab|--2x-2x-2x---5x—5x—5x---0x-0x—0x---7x—7x—7x-----|
Db|--2x-2x-2x---5x-5x—5x---0x—0x—0x---7x—7x—7x-----|
 
(NOTE: Both of these are ways of playing Verse 2)

PRE-CHORUS (with distortion)

eb|---------------------------------------------------------------|
Bb|---------------------------------------------------------------|
Gb|---------------------------------------------------------------|
Db|---10x-10x—10x—10x—10x—10x—10x—10x—9x—9x—9x—9x—9x—9x—9x—9x-----|
Ab|---10x-10x—10x—10x—10x—10x—10x—10x—9x—9x—9x—9x—9x—9x—9x—9x-----|
Db|---10x-10x—10x—10x—10x—10x—10x—10x—9x—9x—9x—9x—9x—9x—9x—9x-----|

eb|-----------------------------------------------------------|
Bb|-----------------------------------------------------------|
Gb|-----------------------------------------------------------|
Db|---7x—7x—7x—7x—7x—7x—7x—7x—/10—10-10-10-/12-12-12-12-\-----|
Ab|---7x—7x—7x—7x—7x—7x—7x—7x—/10-10-10-10-/12-12-12-12-\-----|
Db|---7x—7x—7x—7x—7x—7x—7x—7x—/10-10-10-10-/12-12-12-12-\-----|

CHORUS 2(with distortion)

eb|----------------------------------------------------------|
Bb|----------------------------------------------------------|
Gb|----------------------------------------------------------| 2x
Db|--2-2----x-x-x----5-5----x-x-x----7-7----x-x-x----7-7-----|
Ab|--2-2----x-x-x----5-5----x-x-x----0-0----x-x-x----7-7-----|
Db|--2-2----x-x-x----5-5----x-x-x----0-0----x-x-x----7-7-----|

Then,

eb|--------------------------------------|
Bb|--------------------------------------|
Gb|--------------------------------------| 2 times
Db|--2-2-2---5-5-5---7-7-7---10-10-10----|
Ab|--2-2-2---5-5-5---0-0-0---10-10-10----|
Db|--2-2-2---5-5-5---0-0-0---10-10-10----|
 
Then,

eb|-----------------------------------------------------------------|
Bb|-----------------------------------------------------------------|
Gb|-----------------------------------------------------------------|
Db|--2-2----x-x-x----5-5----x-x-x----7-7----x-x-x---/10-10-10-10----|
Ab|--2-2----x-x-x----5-5----x-x-x----0-0----x-x-x---/10-10-10-10----|
Db|--2-2----x-x-x----5-5----x-x-x----0-0----x-x-x---/10-10-10-10----|

BRIDGE

eb|-------------------------------------|
Bb|-------------------------------------|
Gb|-------------------------------------|
Db|--7-7-7-7-7-7-7-7-5-5-5-5-5-5-5-5—---|
Ab|--7-7-7-7-7-7-7-7-5-5-5-5-5-5-5-5—---|
Db|--7-7-7-7-7-7-7-7-5-5-5-5-5-5-5-5—---|

Then,

eb|---------------------------------|
Bb|---------------------------------|
Gb|---------------------------------| 2x
Db|--0h2-2-2---0h2-2-2---3-3-3-3----|
Ab|--0h2-2-2---0h2-2-2---3-3-3-3----|
Db|--0h2-2-2---0h2-2-2---3-3-3-3----|

Then,

eb|-------------------------------------|
Bb|-------------------------------------|
Gb|-------------------------------------|
Db|--7-7-7-7-7-7-7-7-5-5-5-5-5-5-5-5—---|
Ab|--7-7-7-7-7-7-7-7-5-5-5-5-5-5-5-5—---|
Db|--7-7-7-7-7-7-7-7-5-5-5-5-5-5-5-5—---|

Then,

eb|---------------------------------|
Bb|---------------------------------|
Gb|---------------------------------| 2x
Db|--0h2-2-2---0h2-2-2---3-3-3-3----|
Ab|--0h2-2-2---0h2-2-2---3-3-3-3----|
Db|--0h2-2-2---0h2-2-2---3-3-3-3----|

Then,

eb|-----------------------------------------------|
Bb|-----------------------------------------------|
Gb|-----------------------------------------------|
Db|--7-7-7-7-7-7-7-7-/10-10-10-10-/12-12-12-12----|
Ab|--7-7-7-7-7-7-7-7-/10-10-10-10-/12-12-12-12----|
Db|--7-7-7-7-7-7-7-7-/10-10-10-10-/12-12-12-12----|


VERSE 3

eb|----------------------------------------|
Bb|----------------------------------------|
Gb|----------------------------------------| 4x
Db|------2---------7-------7---------7-----|
Ab|----2---2-----5---5---0---0-----7---7---|
Db|--2-------2/5-------0-------5/7---------|

OUTRO

eb|----------------------------------------------------------|
Bb|----------------------------------------------------------|
Gb|----------------------------------------------------------| 2x
Db|--2-2----x-x-x----5-5----x-x-x----7-7----x-x-x----7-7-----|
Ab|--2-2----x-x-x----5-5----x-x-x----0-0----x-x-x----7-7-----|
Db|--2-2----x-x-x----5-5----x-x-x----0-0----x-x-x----7-7-----|

Then,

eb|--------------------------------------|
Bb|--------------------------------------|
Gb|--------------------------------------| 6x
Db|--2-2-2---5-5-5---7-7-7---10-10-10----|
Ab|--2-2-2---5-5-5---0-0-0---10-10-10----|
Db|--2-2-2---5-5-5---0-0-0---10-10-10----|

Then,

eb|------------------------------------------------------------|
Bb|------------------------------------------------------------|
Gb|-------------------------------------------9~~--------------|
Db|--2-2----x-x-x----5-5----x-x-x----7-7---x—-7~~--------------|
Ab|--2-2----x-x-x----5-5----x-x-x----0-0---x—-7~~--------------|
Db|--2-2----x-x-x----5-5----x-x-x----0-0---x—-7~~--------------|


| /  slide up
| \  slide down
| x  Mute note
| h  hammer-on
| ~  let ring

============================================================================





Comments


Popular Saliva tabs & chords
King Of The Stereo 2 Bass Tabs
Ladies And Gentlemen Bass Tabs
My Goodbyes Bass Tabs
Rock And Roll Revolution Bass Tabs
Beg Tabs
Black Sheep Tabs
I Want You 1 Tabs
Southern Girls Tabs
Storm Tabs
Two Steps Back 1 Tabs


Song lyrics



↑ Back to top | Tablatures and chords are parodies/interpretations of the original songs. You may use it for private study, scholarship, research or language learning purposes only
© 2014 AZChords.com Contact us | Privacy policy | DMCA | Add/correct tabs | Request tabs | Top 50 tabs