» » »

Bleed For Me Tabs (ver.2)

Artists:  A B C D E F G H I J K L M N O P Q R S T U V W X Y Z # 

Bleed For Me Tabs (ver.2)

Saliva
Rating:
0/5 (0 votes)

Tabs too difficult? Try these video lessons and learn fast.
                Tuning Drop D and 1/2 step down
Db Ab Db Gb Bb Eb

#INTRO (LEAD) X2 - DISTORTION
Eb|---5----------------5---------------5------------------------|
Bb|-------------------------------------------------------------|
Gb|-----7--6--7--6--7----7/9/11--11--------7--6--7/9--7----4----|
Db|-------------------------------------------------------------|
Ab|-------------------------------------------------------------|
Db|-------------------------------------------------------------|

INTRO (RHYTHM) X2 - DISTORTION
Eb|-----------------------------------------------------------|
Bb|-----------------------------------------------------------|
Gb|---7-7-7-7-7-7-7-------------------------------------------|
Db|---7-7-7-7-7-7-7---7-7-7-7-7-7-7-7---9-9-9-9-9-9-9-9---5~--|
Ab|---5-5-5-5-5-5-5---7-7-7-7-7-7-7-7---9-9-9-9-9-9-9-9---5~--|
Db|-------------------7-7-7-7-7-7-7-7---9-9-9-9-9-9-9-9---5~--|
       Db (x8)             Ab(x8)	     Bb(x8)      Gb(x1)

VERSE 1 - CLEAN x2
Eb|--------------------------------------------------------------------|
Bb|--------------------------------------------------------------------|
Gb|------------------------------------7-7-7-7-7-7-7-7-----------------|
Db|--9-9-9-9-9-9-9-9--5-5-5-5-5-5-5-5--7-7-7-7-7-7-7-7--7-7-7-7-7-7-7--|
Ab|--9-9-9-9-9-9-9-9--5-5-5-5-5-5-5-5--5-5-5-5-5-5-5-5--7-7-7-7-7-7-7--|
Db|--9-9-9-9-9-9-9-9--5-5-5-5-5-5-5-5-------------------7-7-7-7-7-7-7--|
	Bb (x8)		 Gb(X8)	     	  Db(x8)	  Ab(x8)

BRIDGE - DISTORTION
Eb|------------------------------------------------------------------------------| 
Bb|------------------------------------------------------------------------------|
Gb|------------------------------------------------------------------------------|
Db|-9-9-9-9-9-9-9-9--5-5-5-5-5-5-5-5---9-9-9-9-9-9-9--7-7-7-7-7-7-7-7--9----5----| 
Ab|-9-9-9-9-9-9-9-9--5-5-5-5-5-5-5-5---9-9-9-9-9-9-9--7-7-7-7-7-7-7-7--9----5----|
Db|-9-9-9-9-9-9-9-9--5-5-5-5-5-5-5-5---9-9-9-9-9-9-9--7-7-7-7-7-7-7-7--9-X8-5-x8-| 
                                                                      
CHORUS - DISTORTION
Eb|------------------------------------------------------------------------| 
Bb|------------------------------------------------------------------------| 
Gb|---7-7-7-7-7-7-7--------------------------------------------------------| 
Db|---7-7-7-7-7-7-7---7-7-7-7-7-7-7-7---9-9-9-9-9-9-9-9---5-5-5-5-5-5-5-5--| 
Ab|---5-5-5-5-5-5-5---7-7-7-7-7-7-7-7---9-9-9-9-9-9-9-9---5-5-5-5-5-5-5-5--|
Db|-------------------7-7-7-7-7-7-7-7---9-9-9-9-9-9-9-9---5-5-5-5-5-5-5-5--| 
	Db (x8)             Ab(x8)	     Bb(x8)             Gb(x8)

Eb|------------------------------------------------------------------|
Bb|------------------------------------------------------------------|
Gb|---7-7-7-7-7-7-7--------------------------------------------------|
Db|---7-7-7-7-7-7-7---7-7-7-7-7-7-7-7----9-9-9-9-9-9-9-9/---5~-------|
Ab|---5-5-5-5-5-5-5---7-7-7-7-7-7-7-7----9-9-9-9-9-9-9-9/---5~-------|
Db|-------------------7-7-7-7-7-7-7-7----9-9-9-9-9-9-9-9/---5~-------|
       Db (x8)             Ab(x8)	     Bb(x8)        Gb(x1)

INTERLAUDE (LEAD) - DISTORTION
Eb|---5----------------5---------------5----------------------|
Bb|-----------------------------------------------------------|
Gb|-----7--6--7--6--7----7/9/11--11--------7--6--7/9--7----4--|
Db|-----------------------------------------------------------|
Ab|-----------------------------------------------------------|
Db|-----------------------------------------------------------|

Interlude (RHYTHM) - DISTORTION
Eb|---------------------------------------------------------------------------|
Bb|---------------------------------------------------------------------------|
Gb|---7-7-7-7-7-7-7-----------------------------------------------------------|
Db|---7-7-7-7-7-7-7---7-7-7-7-7-7-7-7---9-9-9-9-9-9-9-9---5~------------------|
Ab|---5-5-5-5-5-5-5---7-7-7-7-7-7-7-7---9-9-9-9-9-9-9-9---5~-(Let Ring for 8)-|
Db|-------------------7-7-7-7-7-7-7-7---9-9-9-9-9-9-9-9---5~------------------|
       Db (x8)             Ab(x8)	     Bb(x8)             Gb(x1)

VERSE 2 - CLEAN x2
Eb|--------------------------------------------------------------------|
Bb|--------------------------------------------------------------------|
Gb|------------------------------------7-7-7-7-7-7-7-7-----------------|
Db|--9-9-9-9-9-9-9-9--5-5-5-5-5-5-5-3--7-7-7-7-7-7-7-7--7-7-7-7-7-7-7--|
Ab|--9-9-9-9-9-9-9-9--5-5-5-5-5-5-5-5--5-5-5-5-5-5-5-5--7-7-7-7-7-7-7--|
Db|--9-9-9-9-9-9-9-9--5-5-5-5-5-5-5-5-------------------7-7-7-7-7-7-7--|
								
BRIDGE - DISTORTION
Eb|------------------------------------------------------------------------------| 
Bb|------------------------------------------------------------------------------|
Gb|------------------------------------------------------------------------------|
Db|-9-9-9-9-9-9-9-9--5-5-5-5-5-5-5-5---9-9-9-9-9-9-9--7-7-7-7-7-7-7-7--9----5----| 
Ab|-9-9-9-9-9-9-9-9--5-5-5-5-5-5-5-5---9-9-9-9-9-9-9--7-7-7-7-7-7-7-7--9----5----|
Db|-9-9-9-9-9-9-9-9--5-5-5-5-5-5-5-5---9-9-9-9-9-9-9--7-7-7-7-7-7-7-7--9-X8-5-x8-| 
                                                                      

SOLO (Unfinished) - there's more on the end but i can't work it out or probably
play it! :)
Eb|---5------------5----------5-----------------------------------------------|
Bb|---------------------------------------------------------------------------|
Gb|-----7-6---6-7---7-6---6-7---7-6---6-7/9--7--6--7-6-7-6-------6-7-9/11---6-|
Db|---------7-----------7-----------7----------------------7--7---------------|
Ab|---------------------------------------------------------------------------|
Db|---------------------------------------------------------------------------|

Eb|--------------------|
Bb|--------------------|
Gb|--7/11/14br-14h16---|
Db|--------------------|
Ab|--------------------|
Db|--------------------|


OUTRO - REPEAT CHORUS x2

SONG ORDER
INTRO X 2
VERSE
BRIDGE
CHORUS
INTERLAUDE (INTRO)
VERSE
BRIDGE
CHORUS
SOLO
CHORUS
OUTRO
            
Tabs too difficult? Try these video lessons and learn fast.


comments powered by Disqus
↑ Back to top | Tablatures and chords are parodies/interpretations of the original songs. You may use it for private study, scholarship, research or language learning purposes only