» » »

Saliva, Bleed For Me Tabs (ver.1)

Artists:  A B C D E F G H I J K L M N O P Q R S T U V W X Y Z # 

Bleed For Me Tabs (ver.1)

Saliva Tabs
 Rating:
4.6/5 (11 votes)
Bleed For Me lessons Tabs too difficult? Try these video lessons and learn fast
                Song - Bleed For Me
Artist - Saliva
Album - Daredevil OST

This song is from the very excellent Daredevil OST.

#INTRO (LEAD) X2 - DISTORTION
E|---4----------------4---------------4-------------------------------------|
B|--------------------------------------------------------------------------|
G|-----6--5--6--5--6----6/8/10--10------6--5--6/8--6----3-------------------|
D|--------------------------------------------------------------------------|
A|--------------------------------------------------------------------------|
E|--------------------------------------------------------------------------|

INTRO (RHYTHM) X2 - DISTORTION
E|--------------------------------------------------------------------------|
B|--------------------------------------------------------------------------|
G|---6-6-6-6-6-6-6----------------------------------------------------------|
D|---6-6-6-6-6-6-6---6-6-6-6-6-6-6-6---8-8-8-8-8-8-8-8---4------------------|
A|---4-4-4-4-4-4-4---6-6-6-6-6-6-6-6---8-8-8-8-8-8-8-8---4-(Let Ring for 8)-|
E|-------------------4-4-4-4-4-4-4-4---6-6-6-6-6-6-6-6---2------------------|
       Db (x8)             Ab(x8)	     Bb(x8)             Gb(x1)

VERSE 1 - CLEAN x2
E|---------------------------------------------------------------------------|
B|---------------------------------------------------------------------------|
G|------------------------------------6-6-6-6-6-6-6-6------------------------|
D|--8-8-8-8-8-8-8-8--4-4-4-4-4-4-4-4--6-6-6-6-6-6-6-6--6-6-6-6-6-6-6---------|
A|--8-8-8-8-8-8-8-8--4-4-4-4-4-4-4-4--4-4-4-4-4-4-4-4--6-6-6-6-6-6-6---------|
E|--6-6-6-6-6-6-6-6--2-2-2-2-2-2-2-2-------------------4-4-4-4-4-4-4---------|
	Bb (x8)		 Gb(X8)	     	  Db(x8)	  Ab(x8)

BRIDGE - DISTORTION
E|---------------------------------------------------------------------------|
B|---------------------------------------------------------------------------|
G|---------------------------------------------------------------------------|
D|-8-8-8-8-8-8-8-8--4-4-4-4-4-4-4-4-8-8-8-8-8-8-8--6-6-6-6-6-6-6-6--8----4---|
A|-8-8-8-8-8-8-8-8--4-4-4-4-4-4-4-4-8-8-8-8-8-8-8--6-6-6-6-6-6-6-6--8----4---|
E|-6-6-6-6-6-6-6-6--2-2-2-2-2-2-2-2-6-6-6-6-6-6-6--4-4-4-4-4-4-4-4--6X8--2x8-|

CHORUS - DISTORTION
E|---------------------------------------------------------------------------|
B|---------------------------------------------------------------------------|
G|---6-6-6-6-6-6-6-----------------------------------------------------------|
D|---6-6-6-6-6-6-6---6-6-6-6-6-6-6-6---8-8-8-8-8-8-8-8---4-4-4-4-4-4-4-4-----|
A|---4-4-4-4-4-4-4---6-6-6-6-6-6-6-6---8-8-8-8-8-8-8-8---4-4-4-4-4-4-4-4-----|
E|-------------------4-4-4-4-4-4-4-4---6-6-6-6-6-6-6-6---2-2-2-2-2-2-2-2-----|
	Db (x8)             Ab(x8)	     Bb(x8)             Gb(x8)
E|-----------------------------------------------------------|
B|-----------------------------------------------------------|
G|---6-6-6-6-6-6-6-------------------------------------------|
D|---6-6-6-6-6-6-6---6-6-6-6-6-6-6-6---8-8-8-8-8-8-8-8/---4--|
A|---4-4-4-4-4-4-4---6-6-6-6-6-6-6-6---8-8-8-8-8-8-8-8/---4--|(Let Ring for 8)
E|-------------------4-4-4-4-4-4-4-4---6-6-6-6-6-6-6-6/---2--|
       Db (x8)             Ab(x8)	     Bb(x8)             Gb(x1)

INTERLAUDE (LEAD) - DISTORTION
E|---4----------------4---------------4-------------------------------------|
B|--------------------------------------------------------------------------|
G|-----6--5--6--5--6----6/8/10--10------6--5--6/8--6----3-------------------|
D|--------------------------------------------------------------------------|
A|--------------------------------------------------------------------------|
E|--------------------------------------------------------------------------|

INTERLAUDE (RHYTHM) - DISTORTION
E|--------------------------------------------------------------------------|
B|--------------------------------------------------------------------------|
G|---6-6-6-6-6-6-6----------------------------------------------------------|
D|---6-6-6-6-6-6-6---6-6-6-6-6-6-6-6---8-8-8-8-8-8-8-8---4------------------|
A|---4-4-4-4-4-4-4---6-6-6-6-6-6-6-6---8-8-8-8-8-8-8-8---4-(Let Ring for 8)-|
E|-------------------4-4-4-4-4-4-4-4---6-6-6-6-6-6-6-6---2------------------|
       Db (x8)             Ab(x8)	     Bb(x8)             Gb(x1)

VERSE 2 - CLEAN x2
E|---------------------------------------------------------------------------|
B|---------------------------------------------------------------------------|
G|------------------------------------6-6-6-6-6-6-6-6------------------------|
D|--8-8-8-8-8-8-8-8--4-4-4-4-4-4-4-4--6-6-6-6-6-6-6-6--6-6-6-6-6-6-6---------|
A|--8-8-8-8-8-8-8-8--4-4-4-4-4-4-4-4--4-4-4-4-4-4-4-4--6-6-6-6-6-6-6---------|
E|--6-6-6-6-6-6-6-6--2-2-2-2-2-2-2-2-------------------4-4-4-4-4-4-4---------|


BRIDGE - DISTORTION
E|---------------------------------------------------------------------------|
B|---------------------------------------------------------------------------|
G|---------------------------------------------------------------------------|
D|-8-8-8-8-8-8-8-8--4-4-4-4-4-4-4-4-8-8-8-8-8-8-8--6-6-6-6-6-6-6-6--8----4---|
A|-8-8-8-8-8-8-8-8--4-4-4-4-4-4-4-4-8-8-8-8-8-8-8--6-6-6-6-6-6-6-6--8----4---|
E|-6-6-6-6-6-6-6-6--2-2-2-2-2-2-2-2-6-6-6-6-6-6-6--4-4-4-4-4-4-4-4--6X8--2x8-|

CHORUS - DISTORTION
E|---------------------------------------------------------------------------|
B|---------------------------------------------------------------------------|
G|---6-6-6-6-6-6-6-----------------------------------------------------------|
D|---6-6-6-6-6-6-6---6-6-6-6-6-6-6-6---8-8-8-8-8-8-8-8---4-4-4-4-4-4-4-4-----|
A|---4-4-4-4-4-4-4---6-6-6-6-6-6-6-6---8-8-8-8-8-8-8-8---4-4-4-4-4-4-4-4-----|
E|-------------------4-4-4-4-4-4-4-4---6-6-6-6-6-6-6-6---2-2-2-2-2-2-2-2-----|
	Db (x8)             Ab(x8)	     Bb(x8)             Gb(x8)
E|-----------------------------------------------------------|
B|-----------------------------------------------------------|
G|---6-6-6-6-6-6-6-------------------------------------------|
D|---6-6-6-6-6-6-6---6-6-6-6-6-6-6-6---8-8-8-8-8-8-8-8/---4--|
A|---4-4-4-4-4-4-4---6-6-6-6-6-6-6-6---8-8-8-8-8-8-8-8/---4--|(Let Ring for 8)
E|-------------------4-4-4-4-4-4-4-4---6-6-6-6-6-6-6-6/---2--|
       Db (x8)             Ab(x8)	     Bb(x8)             Gb(x1)

SOLO (Unfinished) - there's more on the end but i can't work it out or probably play it! :)
E|---4------------4----------4-----------------------------------------------------------------|
B|---------------------------------------------------------------------------------------------|
G|-----6-5---5-6---6-5---5-6---6-5---5-6/8--6--5--6-5-6-5-------5-6-8/10---5-6/10/13br-13h15---|
D|---------6-----------6-----------6----------------------6--6---------------------------------|
A|---------------------------------------------------------------------------------------------|
E|---------------------------------------------------------------------------------------------|


CHORUS (RHYTHM) - DISTORTION
E|---------------------------------------------------------------------------|
B|---------------------------------------------------------------------------|
G|---6-6-6-6-6-6-6-----------------------------------------------------------|
D|---6-6-6-6-6-6-6---6-6-6-6-6-6-6-6---8-8-8-8-8-8-8-8---4-4-4-4-4-4-4-4-----|
A|---4-4-4-4-4-4-4---6-6-6-6-6-6-6-6---8-8-8-8-8-8-8-8---4-4-4-4-4-4-4-4-----|
E|-------------------4-4-4-4-4-4-4-4---6-6-6-6-6-6-6-6---2-2-2-2-2-2-2-2-----|
	Db (x8)             Ab(x8)	     Bb(x8)             Gb(x8)
E|-----------------------------------------------------------|
B|-----------------------------------------------------------|
G|---6-6-6-6-6-6-6-------------------------------------------|
D|---6-6-6-6-6-6-6---6-6-6-6-6-6-6-6---8-8-8-8-8-8-8-8/---4--|
A|---4-4-4-4-4-4-4---6-6-6-6-6-6-6-6---8-8-8-8-8-8-8-8/---4--|(Let Ring for 8)
E|-------------------4-4-4-4-4-4-4-4---6-6-6-6-6-6-6-6/---2--|
       Db (x8)             Ab(x8)	     Bb(x8)             Gb(x1)

OUTRO - REPEAT CHORUS x2

SONG ORDER
INTRO X 2
VERSE
BRIDGE
CHORUS
INTERLAUDE (INTRO)
VERSE
BRIDGE
CHORUS
SOLO
CHORUS
OUTRO
            
Submit corrections

comments powered by Disqus
↑ Back to top | Saliva Tabs for Bleed For Me. Lyrics for acoustic guitar and electric guitar. Tablatures and chords are parodies/interpretations of the original songs. You may use it for private study, scholarship, research or language learning purposes only