» » »

Feel Tabs (ver.2)

Artists:  A B C D E F G H I J K L M N O P Q R S T U V W X Y Z # 

Feel Tabs (ver.2)

Robbie Williams
Rating:
4/5 (3 votes)

Tabs too difficult? Try these video lessons and learn fast.
                Feel  -  Robbie Williams

(It's pretty much a piano song, but this is it's structure)

Intro:
[piano arr. for guitar]


      Dm              Am/D        F/D                G/D         
E||------5---5----5---12---12--|-----8----8-----8----10---10---||
B||------6---6----6---13---13--|-----10---10----10---12---12---||
G||*-----7---7----7---14---14--|-----10---10----10---12---12--*||
D||*--0--------0---------------|--0----------0----------------*||
A||----------------------------|-------------------------------||
E||----------------------------|-------------------------------||


                 Dm
Come and hold my hand
Am/C                A/C#
I wanna contact the living
A7              Gm
Not sure I understand
Dm/F                A    (Dm/A)  |   A7  (Dm/A)  A
This role I've been given

                  Dm
I sit and talk to God
Am/C                     A/C#
And he just laughs at my plans
A7               Gm
My head speaks a language
Dm/F           A    (Dm/A)  |   A7  
I don't understand



Chorus:

               Bb         F
I just want to feel real love
                      C
Feel the home that I live in
                    Bb
'Cos I got too much life
                    F
Runnin' through my veins
            C
Going to waste



                Dm
I don't want to die
Am/C                       A/C#
But I ain't keen on living either
A7               Gm
Before I fall in love
Dm/F              A    (Dm/A)  |   A7  (Dm/A)  A
I'm preparing to leave her

                  Dm
I scare myself to death
Am/C                 A/C#
That's why I keep on running
A7           Gm
Before I've arrived
Dm/F              A    (Dm/A)  |   A7
I can see myself coming



Chorus 2:
                Bb        F
I just want to feel real love
                      C
Feel the home that I live in
                       Bb
'Cause I got too much life
                    C
Runnin' through my veins
          C
Going to waste
               Bb        F
And I need to feel real love
                C
In a life ever after
                 Dm
I cannot give it up




[Repeat Intro 4×]


[Solo]

E||--------------17/---|--13--------12/-13/-12/-10--|
B||--------------------|----------------------------|
G||--------------------|----------------------------|
D||--------------------|----------------------------|
A||--------------------|----------------------------|
E||--------------------|----------------------------|


                                                  
--------------17/---|--13--------12/-13/-12--12--|
--------------------|----------------------------|
--------------------|----------------------------|
--------------------|----------------------------|
--------------------|----------------------------|
--------------------|----------------------------|


                                                     
------10--------17/---|--13--------12/-13/-12/-10--||
----------------------|----------------------------||
----------------------|----------------------------||
----------------------|----------------------------||
----------------------|----------------------------||
----------------------|----------------------------||



                F         Bb
I just want to feel real love
                      C
Feel the home that I live in
                       Bb
'Cause I got too much life
                    C
Runnin' through my veins
          C
Going to waste
               Bb        F
And I need to feel real love
                C
In a life ever after
                     Bb
There’s a hole in my soul
                     F
You can see it in my face 
                 C
It’s a real big place.


                 Dm
Come and hold my hand
Am/C                A/C#
I wanna contact the living
A7              Gm
Not sure I understand
Dm/F                A    (Dm/A)  |   A7  (Dm/A)  A
This role I've been given




[repeat to fade]

||: D Am/D | F/D G/D  :||

Not sure I understand (4×) 
            
Tabs too difficult? Try these video lessons and learn fast.


comments powered by Disqus
↑ Back to top | Tablatures and chords are parodies/interpretations of the original songs. You may use it for private study, scholarship, research or language learning purposes only