» » »

Robbie Williams, Feel Bass tabs (ver.2)

Artists:  A B C D E F G H I J K L M N O P Q R S T U V W X Y Z # 

Feel Bass tabs (ver.2)

Robbie Williams Tabs
 Rating:
4/5 (4 votes)
Feel lessons Tabs too difficult? Try these video lessons and learn fast
1
                Bassist: Phil Spalding
Tuning: Standard

Not sure about bass here (except slide) but You can play this if You want.

Chorus: [0:49]

G|---------------------------------------|
D|-----3~-------------3~-----------------|
A|1~--------3~---1~--------3~--------10\-|
E|---------------------------------------|

Verse: 

G|--------------------------------------------|
D|--------------------------------------------|
A|5---x5-5---3---x3-3---4---x4-4--------4-----|
E|---------------------------------5-x5---5---|

G|--------------------------------------------|
D|--------------------------------------------|
A|--------------------------------------7---7-|
E|3---x3-3---1---x1-1---0---x0-0---5-x----5--8|

G|--------------------------------------------|
D|--------------------------------------------|
A|5---x5-5---3---x3-3---4---x4-4--------4-----|
E|---------------------------------5-x5---5-4-|

G|--------------------------------------------------|
D|------------------------------------7--7--7-7-7-7-|
A|---------------------------------5h7--------------|
E|3---x3-3---1---x1-1---5---x5-5--------------------|

Chorus:

G|--------------------------------------------------|
D|--------------------------------------------------|
A|1--1-1-1--3---------------3--3-3-3----3--3-3-3--3-|
E|-------------1--1-1-1--3h5----------3-------------|

G|--------------------------------------------------|
D|--------------------------------------------------|
A|1--1-1-1--3---------------3--3-3-3----3--3-3-3--3x|
E|-------------1--1-1-1--3h5----------3-------------|

G|-------------------------------------------------------|
D|------------------------------------5------------------|
A|1--1-1-1--3---------------3--3-3-3----3--3-3-3-4-4-5\--|
E|-------------1--1-1-1--3h5-----------------------------|

Interlude:

G|----------------------|
D|----------------------|
A|----------------------|
E|------------1/(12)\(8)|

G|----------------------|    |------------------------|
D|----------------------|    |------------------------|
A|5-5-5-----------------|    |5-5-5-7-7--8-8-8-10-10\-|
E|------5-5--1-1-1-3-3--| x3 |------------------------|
 
Chorus:

G|--------------------------------------------------|
D|------------------------------------5-------------|
A|1--1-1-1--3---------------3--3-3-3----3--3-3-3--3x|
E|-------------1--1-1-1--3h5------------------------|

G|--------------------------------------------------|
D|--------------------------------------------------|
A|1--1-1-1--3---------------3--3-3-3----3--3-3-3--3-|
E|-------------1--1-1-1--3h5----------3-------------|

G|--------------------------------------------------|
D|------------------------------------5-------------|
A|1--1-1-1--3---------------3--3-3-3----3--3-3-3--3-|
E|-------------1--1-1-1--3h5-----------3------------|

G|-------------------------------------------------------|
D|-------------------------------------------------------|
A|1--1-1-1--3---------------3--3-3-3--3-3--3-3-3-4-4-5\--|
E|-------------1--1-1-1--3h5-----------------------------|

Interlude:

G|----------------------|
D|----------------------|
A|----------------------|
E|------------1/(12)\(8)|

G|----------------------|    |------------------------|
D|----------------------|    |------------------------|
A|5-5-5-----------------|    |5-5-5-7-7--8-8-8-10-10\-|
E|------5-5--1-1-1-3-3--| x3 |------------------------|
========================================================= x2

G|----------------------|
D|----------------------|
A|5~--------------------|
E|----------------------|

x  dead note
() ghost note
/  slide up
\  slide down
h  hammer-on
p  pull-off
~  let ring
            
Submit corrections

comments powered by Disqus
↑ Back to top | Robbie Williams Bass for Feel. Lyrics for acoustic guitar and electric guitar. 1 Tablatures and chords are parodies/interpretations of the original songs. You may use it for private study, scholarship, research or language learning purposes only