» » »

Robbie Williams, Angels Bass tabs (ver.1)

Artists:  A B C D E F G H I J K L M N O P Q R S T U V W X Y Z # 

Angels Bass tabs (ver.1)

Robbie Williams Tabs
Rating:
1/5 (1 vote)
Hard to play? Try these video lessons and learn fast.
                This is my first tab, and i'm sorry if i screw up or something...


you don't come in before the Chorus

Then...

Riff 1
G|----------|------------|-----------|------------|
D|----------|------------|-----------|------------|
A|-2----2-2-|--4----4-4--|-0----0-0--|----------0-|
E|----2-----|-----4------|----0------|-0--0-2-4---|

G|----------|------------|-----------|-----------|
D|----------|------------|-----------|-----------|
A|-2----2-2-|--4----4-4--|-0----0-0--|-----------|
E|----2-----|-----4------|----0------|-0~~~-0-0--|



Fill
G|-------|-----|----|
D|-------|-0---|----|
A|-------|---0-|----|
E|-2~~~~-|-----|-0~-|


Riff 3
G|--------------|---------------|-------------|------------|
D|--------------|--2~-----------|-------------|------------|
A|------------2-|------2--------|--0~---0-0-0-|-2~---2-2---|
E|--0~--0-0-0---|--------0-0-4--|-----0-------|----2-------|

G|--------------|--------------|---------------|-----------|
D|--------------|---2~---------|---------------|-----------|
A|------------2-|------2-------|--0~---0-0-0---|-2~---2-2--|
E|--0~--0-0-0---|--------0-0-4-|-----0---------|----2------|

G|-----------|--------------|
D|-0~---0-0--|--------------|
A|----0------|-4~---4-4-----|
E|-----------|----4---------|


Fill
G|-------------|-----|----------------|
D|-------------|-0---|-----2----------|
A|-------------|---0-|---2----------0-|
E|-0~--0-0-0-0-|-----|-0------0-2-4---|


Riff 1
G|----------|------------|-----------|------------|
D|----------|------------|-----------|------------|
A|-2----2-2-|--4----4-4--|-0----0-0--|----------0-|
E|----2-----|-----4------|----0------|-0--0-2-4---|

G|----------|------------|-----------|-----------|
D|----------|------------|-----------|-----------|
A|-2----2-2-|--4----4-4--|-0----0-0--|-----------|
E|----2-----|-----4------|----0------|-0~~~-0-0--|


Fill
G|-------|-----|-----------------|
D|-------|-0---|-----------------|
A|-------|---0-|-----------------|
E|-2~~~~-|-----|-0-0-0-0-0-0-0-0-|


Solo
G|-----------|----------|------------|------------|
D|-----------|----------|--------2---|--------2---|
A|-2~---2-2--|-0~---0-0-|------2-----|------2-----| X 3
E|----2------|----0-----|-0~-0-----0-|-0~-0-----0-| 


Riff 1
G|----------|------------|-----------|-----------|
D|----------|------------|-----------|-----------|
A|-2----2-2-|--4----4-4--|-0----0-0--|-----------|
E|----2-----|-----4------|----0------|-0~~~-0-0--|


Fill
G|-------|-----|-----------------|
D|-------|-0---|-----------------|
A|-------|---0-|-----------------|
E|-2~~~~-|-----|-0-0-0-0-0-0-0-0-|
            

comments powered by Disqus
↑ Back to top | Robbie Williams Bass for Angels. Lyrics for acoustic guitar and electric guitar. Tablatures and chords are parodies/interpretations of the original songs. You may use it for private study, scholarship, research or language learning purposes only