>
 >
Feel

Feel Guitar Tabs

Robbie Williams - Feel chords, tabs, tablatures, lyrics

Guitar lessons | Add/correct | Request | Top 50 tabs Artists:  A B C D E F G H I J K L M N O P Q R S T U V W X Y Z 0-9

Feel Guitar Tabs – Robbie Williams

CD, Sheet music, Poster

Do you like Feel? Share with your friends now
Bass TabsBass Tabs v2ChordsChords v2Chords v3Chords v4Chords v5Drum TabsTabsTabs v2Tabs v3Ukulele
interpret:	Robbie Williams
capo:		0
album:		Escapology
setting:	standart


all the chords:

   C   Dm Dm/F Dsus4/D  F  F**   F/C  F#m7/C#  G     Gm    A/E   Asus4  Bb
e|-0-|-1-|-1--|---5---|-1-|-13-|-8---|--9---|--10--|--3--|--5--|--12--|--1--|
B|-1-|-3-|-3--|---6---|-1-|-13-|-10--|--10--|--12--|--3--|--5--|--13--|--3--|
G|-0-|-2-|-2--|---7---|-2-|-14-|-10--|--9---|--12--|--3--|--6--|--14--|--3--|
D|-2-|-0-|-x--|---0---|-3-|-15-|-10--|--11--|--12--|--5--|--7--|--x---|--3--|
A|-3-|-x-|-x--|---x---|-3-|-15-|-8---|--9---|--10--|--5--|--7--|--x---|--1--|
E|-x-|-x-|-1--|---x---|-1-|-13-|-x---|--0---|--x---|--3--|--0--|--x---|--x--|


*  = let ring
** = it's not the normal chord
s  = slide

=============================================================================

intro:

   Dsus4/D    Asus4   F**        G
e|----5-5-5---12-12--------------------| (2x)
B|----6-6-6---13-13---13-13-13---12-12-|
G|----7-7-7---14-14---14-14-14---12-12-|
D|-0*-----------------15-15-15---12-12-|
A|-------------------------------------|
E|-------------------------------------|
			Come on hold my hand
Verse 1:

   Dsus4/D       F/C                F#m7/C#         Dm
e|----5-5-5-5-5-----------------------------------------------------------|
B|----6-6-6-6-6-----10-10-10-10-10-----10-10-10-10--10--------------------|
G|----7-7-7-7-7-----10-10-10-10-10-----9--9--9--9---10---12-12-12--10-----|
D|-0*---------------10-10-10-10-10-----11-11-11-11--12---11-11-11--11--11-|
A|-----------------------------------------------------------------12--12-|
E|---------------8*-----------------9*------------------------------------|
		I wanna contact the living             Not sure I understand

   Gm            Dm/F          A/E         Dsus4/D
e|----3-3-3-3-3-----1-1-1-1-1-----5-5-5-5--5---------------|
B|----3-3-3-3-3-----3-3-3-3-3-----5-5-5-5--6---8-8-8--6--5-|
G|----3-3-3-3-3-----2-2-2-2-2-----6-6-6-6--7---6-6-6--6--6-|
D|---------------------------------------------7-7-7--7--7-|
A|---------------------------------------------------------|
E|-3*------------1*------------0*--------------------------|
		This role I've been given        I sit and talk to God

Verse 2:

   Dsus4/D       F/C                F#m7/C#         Dm
e|----5-5-5-5-5-----------------------------------------------------------|
B|----6-6-6-6-6-----10-10-10-10-10-----10-10-10-10--10--------------------|
G|----7-7-7-7-7-----10-10-10-10-10-----9--9--9--9---10---12-12-12--10-----|
D|-0*---------------10-10-10-10-10-----11-11-11-11--12---11-11-11--11--11-|
A|-----------------------------------------------------------------12--12-|
E|---------------8*-----------------9*------------------------------------|
	       And he just laughs at my plans      My head speaks a language

   Gm            Dm/F          A/E         Dsus4/D
e|----3-3-3-3-3-----1-1-1-1-1-----5-5-5-5--5---------------|
B|----3-3-3-3-3-----3-3-3-3-3-----5-5-5-5--6---8-8-8--6--5-|
G|----3-3-3-3-3-----2-2-2-2-2-----6-6-6-6--7---6-6-6--6--6-|
D|---------------------------------------------7-7-7--7--7-|
A|---------------------------------------------------------|
E|-3*------------1*------------0*--------------------------|
                I don't understand


Chorus:

             Bb        F
I just wanna feel real love
                     C
Feel the home that I live in
                      Bb
'Cause I got too much life
                   F
Running through my veins
         C
Going to waste				I don't wanna die


Verse 3:

   Dsus4/D       F/C                F#m7/C#         Dm
e|----5-5-5-5-5-----------------------------------------------------------|
B|----6-6-6-6-6-----10-10-10-10-10-----10-10-10-10--10--------------------|
G|----7-7-7-7-7-----10-10-10-10-10-----9--9--9--9---10---12-12-12--10-----|
D|-0*---------------10-10-10-10-10-----11-11-11-11--12---11-11-11--11--11-|
A|-----------------------------------------------------------------12--12-|
E|---------------8*-----------------9*------------------------------------|
		But I ain't keen on living either       Before I fall in love
   Gm            Dm/F          A/E         Dsus4/D
e|----3-3-3-3-3-----1-1-1-1-1-----5-5-5-5--5---------------|
B|----3-3-3-3-3-----3-3-3-3-3-----5-5-5-5--6---8-8-8--6--5-|
G|----3-3-3-3-3-----2-2-2-2-2-----6-6-6-6--7---6-6-6--6--6-|
D|---------------------------------------------7-7-7--7--7-|
A|---------------------------------------------------------|
E|-3*------------1*------------0*--------------------------|
		I'm preparing to leave her       I scare myself to death


Verse 4:

   Dsus4/D       F/C                F#m7/C#         Dm
e|----5-5-5-5-5-----------------------------------------------------------|
B|----6-6-6-6-6-----10-10-10-10-10-----10-10-10-10--10--------------------|
G|----7-7-7-7-7-----10-10-10-10-10-----9--9--9--9---10---12-12-12--10-----|
D|-0*---------------10-10-10-10-10-----11-11-11-11--12---11-11-11--11--11-|
A|-----------------------------------------------------------------12--12-|
E|---------------8*-----------------9*------------------------------------|
		This why I keep on running		  Before I've arrived
   Gm            Dm/F          A/E         Dsus4/D
e|----3-3-3-3-3-----1-1-1-1-1-----5-5-5-5--5---------------|
B|----3-3-3-3-3-----3-3-3-3-3-----5-5-5-5--6---8-8-8--6--5-|
G|----3-3-3-3-3-----2-2-2-2-2-----6-6-6-6--7---6-6-6--6--6-|
D|---------------------------------------------7-7-7--7--7-|
A|---------------------------------------------------------|
E|-3*------------1*------------0*--------------------------|
		I can see myself coming


Chorus:

             Bb	       F
I just wanna feel real love
                     C
Feel the home that I live in
                      Bb
'Cause I got too much life
                   F
Running through my veins
         C
Going to waste


              Bb        F
And I need to feel real love
                C
And a life ever after			I cannot get enough


Solo:

   Dsus4/D    Asus4   F**        G
e|----5-5-5---12-12--------------------| (2x)
B|----6-6-6---13-13---13-13-13---12-12-|
G|----7-7-7---14-14---14-14-14---12-12-|
D|-0*-----------------15-15-15---12-12-|
A|-------------------------------------|
E|-------------------------------------|

e|-17s13-13--12-13-12--10-|-17s13-13--12-13-12--12-10-|
B|------------------------|---------------------------|
G|------------------------|---------------------------|
D|------------------------|---------------------------|
A|------------------------|---------------------------|
E|------------------------|---------------------------|

e|-17s13-13--12-13-12--10-|-17s13-13--12-13-12-|
B|------------------------|--------------------|
G|------------------------|--------------------|
D|------------------------|--------------------|
A|------------------------|--------------------|
E|------------------------|--------------------|

Chorus:

             Bb	       F
I just wanna feel real love
                     C
Feel the home that I live in
                      Bb
'Cause I got too much life
                   F
Running through my veins
         C
Going to waste

             Bb        F
I just wanna feel real love
               C
In a life ever after

Ending:
                     Bb
There's a hole in my soul
                     F
You can see it in my face
                C
It's a real big place

   Dsus4/D    Asus4   F**        G
e|----5-5-5---12-12--------------------| (2x)
B|----6-6-6---13-13---13-13-13---12-12-|
G|----7-7-7---14-14---14-14-14---12-12-|
D|-0*-----------------15-15-15---12-12-|
A|-------------------------------------|
E|-------------------------------------|


e|-17s13-13--12-13-12--10-|-17s13-13--12-13-12--12-10-| (3x)
B|------------------------|---------------------------|
G|------------------------|---------------------------|
D|------------------------|---------------------------|
A|------------------------|---------------------------|
E|------------------------|---------------------------|

Come on hold my hand, I want to contact the living - Not sure I understand

This role I've been given - Not sure I understand

Not sure I understand - Not sure I understand


e|-17s13-13--12-13-12--10-|-17s13-13--12-13-12--5-|
B|------------------------|---------------------6-|
G|------------------------|---------------------7-|
D|------------------------|-----------------------|
A|------------------------|-----------------------|
E|------------------------|-----------------------|

Not sure I understand

=============================================================================





Comments


Popular Robbie Williams tabs & chords
Angels Bass Tabs
Karma Killer Bass Tabs
Rock Dj Bass Tabs
A Man For All Seasons Chords
It's Only Us Chords
Let Me Entertain You 4 Chords
Millenium Chords
Often Ukulele
Old Before I Die Ukulele
Shes The One Ukulele


Song lyrics



↑ Back to top | Tablatures and chords are parodies/interpretations of the original songs. You may use it for private study, scholarship, research or language learning purposes only
© 2014 AZChords.com Contact us | Privacy policy | DMCA | Add/correct tabs | Request tabs | Top 50 tabs