» » »

Rise Against, Black Masks And Gasoline Tabs (ver.1)

Artists:  A B C D E F G H I J K L M N O P Q R S T U V W X Y Z # 

Black Masks And Gasoline Tabs (ver.1)

Rise Against Tabs
Rating:
0/5 (0 votes)
Black Masks And Gasoline lessons Tabs too difficult? Try these video lessons and learn fast
                
 * = Palm muted

INTRO (x2)
|-------------------------------------------------------
|-------------------------------------------------------
|-------4-------6---------------------------------------
|-4-2-4-4-4-2-4-6-6-------------------------------------
|-4-2-4-2-4-2-4-4-6-------------------------------------
|-2-0-2---2-0-2---4-------------------------------------


VERSE (x4)
(simply because you can't breathe...)
|-------------------------------------------------------
|-------------------------------------------------------
|----------9-------------------11-----------------------
|-6--------9--(x12)--9---------11--(x12)----------------
|-6-(x12)--7---------9--(x12)--9------------------------
|-4------------------7----------------------------------


BETWEEN VERSES
|-------------------------------------------------------
|-------------------------------------------------------
|-9---------8-------------------------------------------
|-9--(x11)--8-4------4-44-5-55--------------------------
|-7---------6-4-(x6)-4-44-5-55--------------------------
|-------------2------2-22-3-33--------------------------
                     *    * 
"CHORUS" (x3)
(I don't understand where you've got this idea of...)
|-------------------------------------------------------
|-------------------------------------------------------
|---------11--------9--------99-88-99-88----------------
|-6-------11--(x6)--9--(x6)--99-88-99-88----------------
|-6--(x6)-9---------7--------77-66-77-66----------------
|-4-----------------------------------------------------

"CHORUS" (Fourth time)
(Cause I couldn't care less...)
|-------------------------------------------------------
|-------------------------------------------------------
|---------11--------999-888-666-444---------------------
|-6-------11--(x6)--999-888-666-444-444444444-555-------
|-6--(x6)-9---------777-666-444-222-444444444-555-------
|-4---------------------------------222222222-333-------

After that you should play the VERSE tab 2 times and then the BETWEEN VERSES tab...
And after that you play the "CHORUS" tab 3 times and then you play the fourth
time like above...

INTERLUDE (x2)
(I cant make out the lyrics but the time is 1:49...)
|-------------------------------------------------------
|-------------------------------------------------------
|----------------4---4-6----------------444-666--------
|-6666-6666-6666-4-4-4-6-6666-6666-6666-444-666--------
|-6666-6666-6666-2-4-2-4-6666-6666-6666-222-444--------
|-4444-4444-4444---2-----4444-4444-4444----------------
                                        *** ***

VERY IMPORTANT:

SONG ORDER:

INTRO (x2)
VERSE (x4)
BETWEEN VERSES
CHORUS (x3)
CHORUS (Fourth time)
VERSE (x2)
BETWEEN VERSES
CHORUS (x3)
CHORUS (Fourth time)
INTERLUDE
COOL BASS THING (x2)
VERSE (x1)
BETWEEN VERSES
CHORUS (x3)
CHORUS (Fourth time)

END NOTE:

|-------------------------------------------------------
|-------------------------------------------------------
|-------------------------------------------------------
|-6-----------------------------------------------------
|-6-----------------------------------------------------
|-4-----------------------------------------------------

I think I've got it all now...but e-mail me if you have any corrections...
            
Submit corrections

comments powered by Disqus
↑ Back to top | Rise Against Tabs for Black Masks And Gasoline. Lyrics for acoustic guitar and electric guitar. Tablatures and chords are parodies/interpretations of the original songs. You may use it for private study, scholarship, research or language learning purposes only